  0
SECTION
  2
HEADER
  9
$ACADVER
  1
AC1009
  9
$INSBASE
 10
0.0
 20
0.0
 30
0.0
  9
$EXTMIN
 10
-4.2502441176332582
 20
-5.50030516122969
 30
-2.0004271902148849
  9
$EXTMAX
 10
4.2504272650117372
 20
5.5004425217635493
 30
4.0008545317697113
  9
$LIMMIN
 10
0.0
 20
0.0
  9
$LIMMAX
 10
12.0
 20
9.0
  9
$ORTHOMODE
 70
     0
  9
$REGENMODE
 70
     1
  9
$FILLMODE
 70
     1
  9
$QTEXTMODE
 70
     0
  9
$MIRRTEXT
 70
     1
  9
$DRAGMODE
 70
     2
  9
$LTSCALE
 40
1.0
  9
$OSMODE
 70
    37
  9
$ATTMODE
 70
     1
  9
$TEXTSIZE
 40
0.2
  9
$TRACEWID
 40
0.05
  9
$TEXTSTYLE
  7
STANDARD
  9
$CLAYER
  8
0
  9
$CELTYPE
  6
CONTINUOUS
  9
$CECOLOR
 62
     1
  9
$DIMSCALE
 40
1.0
  9
$DIMASZ
 40
0.18
  9
$DIMEXO
 40
0.0625
  9
$DIMDLI
 40
0.38
  9
$DIMRND
 40
0.0
  9
$DIMDLE
 40
0.0
  9
$DIMEXE
 40
0.18
  9
$DIMTP
 40
0.0
  9
$DIMTM
 40
0.0
  9
$DIMTXT
 40
0.18
  9
$DIMCEN
 40
0.09
  9
$DIMTSZ
 40
0.0
  9
$DIMTOL
 70
     0
  9
$DIMLIM
 70
     0
  9
$DIMTIH
 70
     1
  9
$DIMTOH
 70
     1
  9
$DIMSE1
 70
     0
  9
$DIMSE2
 70
     0
  9
$DIMTAD
 70
     0
  9
$DIMZIN
 70
     0
  9
$DIMBLK
  1

  9
$DIMASO
 70
     1
  9
$DIMSHO
 70
     1
  9
$DIMPOST
  1

  9
$DIMAPOST
  1

  9
$DIMALT
 70
     0
  9
$DIMALTD
 70
     2
  9
$DIMALTF
 40
25.399999999999999
  9
$DIMLFAC
 40
1.0
  9
$DIMTOFL
 70
     0
  9
$DIMTVP
 40
0.0
  9
$DIMTIX
 70
     0
  9
$DIMSOXD
 70
     0
  9
$DIMSAH
 70
     0
  9
$DIMBLK1
  1

  9
$DIMBLK2
  1

  9
$DIMSTYLE
  2
STANDARD
  9
$DIMCLRD
 70
     0
  9
$DIMCLRE
 70
     0
  9
$DIMCLRT
 70
     0
  9
$DIMTFAC
 40
1.0
  9
$DIMGAP
 40
0.09
  9
$LUNITS
 70
     2
  9
$LUPREC
 70
     4
  9
$SKETCHINC
 40
0.1
  9
$FILLETRAD
 40
0.0
  9
$AUNITS
 70
     0
  9
$AUPREC
 70
     0
  9
$MENU
  1
.
  9
$ELEVATION
 40
0.0
  9
$PELEVATION
 40
0.0
  9
$THICKNESS
 40
0.0
  9
$LIMCHECK
 70
     0
  9
$BLIPMODE
 70
     0
  9
$CHAMFERA
 40
0.0
  9
$CHAMFERB
 40
0.0
  9
$SKPOLY
 70
     0
  9
$TDCREATE
 40
2452937.4635131708
  9
$TDUPDATE
 40
2452937.4744841321
  9
$TDINDWG
 40
0.0109713194
  9
$TDUSRTIMER
 40
0.0109713194
  9
$USRTIMER
 70
     1
  9
$ANGBASE
 50
0.0
  9
$ANGDIR
 70
     0
  9
$PDMODE
 70
     0
  9
$PDSIZE
 40
0.0
  9
$PLINEWID
 40
0.0
  9
$COORDS
 70
     1
  9
$SPLFRAME
 70
     0
  9
$SPLINETYPE
 70
     6
  9
$SPLINESEGS
 70
     8
  9
$ATTDIA
 70
     0
  9
$ATTREQ
 70
     1
  9
$HANDLING
 70
-16383
  9
$HANDSEED
  5
9A2
  9
$SURFTAB1
 70
     6
  9
$SURFTAB2
 70
     6
  9
$SURFTYPE
 70
     6
  9
$SURFU
 70
     6
  9
$SURFV
 70
     6
  9
$UCSNAME
  2

  9
$UCSORG
 10
0.0
 20
0.0
 30
0.0
  9
$UCSXDIR
 10
1.0
 20
0.0
 30
0.0
  9
$UCSYDIR
 10
0.0
 20
1.0
 30
0.0
  9
$PUCSNAME
  2

  9
$PUCSORG
 10
0.0
 20
0.0
 30
0.0
  9
$PUCSXDIR
 10
1.0
 20
0.0
 30
0.0
  9
$PUCSYDIR
 10
0.0
 20
1.0
 30
0.0
  9
$USERI1
 70
     0
  9
$USERI2
 70
     0
  9
$USERI3
 70
     0
  9
$USERI4
 70
     0
  9
$USERI5
 70
     0
  9
$USERR1
 40
0.0
  9
$USERR2
 40
0.0
  9
$USERR3
 40
0.0
  9
$USERR4
 40
0.0
  9
$USERR5
 40
0.0
  9
$WORLDVIEW
 70
     1
  9
$SHADEDGE
 70
     3
  9
$SHADEDIF
 70
    70
  9
$TILEMODE
 70
     1
  9
$MAXACTVP
 70
    64
  9
$PLIMCHECK
 70
     0
  9
$PEXTMIN
 10
1.0000000000000000E+020
 20
1.0000000000000000E+020
 30
1.0000000000000000E+020
  9
$PEXTMAX
 10
-1.0000000000000000E+020
 20
-1.0000000000000000E+020
 30
-1.0000000000000000E+020
  9
$PLIMMIN
 10
0.0
 20
0.0
  9
$PLIMMAX
 10
12.0
 20
9.0
  9
$UNITMODE
 70
     0
  9
$VISRETAIN
 70
     1
  9
$PLINEGEN
 70
     0
  9
$PSLTSCALE
 70
     1
  0
ENDSEC
  0
SECTION
  2
TABLES
  0
TABLE
  2
VPORT
 70
     3
  0
VPORT
  2
*ACTIVE
 70
     0
 10
0.0
 20
0.0
 11
1.0
 21
1.0
 12
3.87487794118337
 22
1.7498474193851541
 13
0.0
 23
0.0
 14
1.0
 24
1.0
 15
0.0
 25
0.0
 16
0.0
 26
0.0
 36
1.0
 17
0.0
 27
0.0
 37
0.0
 40
14.669569423812129
 41
1.8187134502923969
 42
50.0
 43
0.0
 44
0.0
 50
0.0
 51
0.0
 71
     0
 72
   100
 73
     1
 74
     1
 75
     0
 76
     0
 77
     0
 78
     0
  0
ENDTAB
  0
TABLE
  2
LTYPE
 70
     1
  0
LTYPE
  2
CONTINUOUS
 70
     0
  3
Solid line
 72
    65
 73
     0
 40
0.0
  0
ENDTAB
  0
TABLE
  2
LAYER
 70
     1
  0
LAYER
  2
0
 70
     0
 62
     7
  6
CONTINUOUS
  0
ENDTAB
  0
TABLE
  2
STYLE
 70
     1
  0
STYLE
  2
STANDARD
 70
     0
 40
0.0
 41
1.0
 50
0.0
 71
     0
 42
0.2
  3
txt
  4

  0
ENDTAB
  0
TABLE
  2
VIEW
 70
     0
  0
ENDTAB
  0
TABLE
  2
UCS
 70
     0
  0
ENDTAB
  0
TABLE
  2
APPID
 70
     1
  0
APPID
  2
ACAD
 70
     0
  0
ENDTAB
  0
TABLE
  2
DIMSTYLE
 70
     1
  0
DIMSTYLE
  2
STANDARD
 70
     0
  3

  4

  5

  6

  7

 40
1.0
 41
0.18
 42
0.0625
 43
0.38
 44
0.18
 45
0.0
 46
0.0
 47
0.0
 48
0.0
140
0.18
141
0.09
142
0.0
143
25.399999999999999
144
1.0
145
0.0
146
1.0
147
0.09
 71
     0
 72
     0
 73
     1
 74
     1
 75
     0
 76
     0
 77
     0
 78
     0
170
     0
171
     2
172
     0
173
     0
174
     0
175
     0
176
     0
177
     0
178
     0
  0
ENDTAB
  0
ENDSEC
  0
SECTION
  2
BLOCKS
  0
BLOCK
  8
0
  2
$MODEL_SPACE
 70
     0
 10
0.0
 20
0.0
 30
0.0
  3
$MODEL_SPACE
  1

  0
ENDBLK
  5
20
  8
0
  0
BLOCK
 67
     1
  8
0
  2
$PAPER_SPACE
 70
     0
 10
0.0
 20
0.0
 30
0.0
  3
$PAPER_SPACE
  1

  0
ENDBLK
  5
1C
 67
     1
  8
0
  0
ENDSEC
  0
SECTION
  2
ENTITIES
  0
LINE
  5
24
  8
0
 62
     1
 39
0.713679
 10
-3.7299799999999999
 20
-2.7424539999999991
 30
0.713679
 11
-2.7699759999999989
 21
-2.7424539999999991
 31
0.713679
  0
LINE
  5
25
  8
0
 62
     1
 39
0.713679
 10
-3.7524799999999998
 20
-1.4924740000000001
 30
0.713679
 11
-2.7474759999999989
 21
-1.4924740000000001
 31
0.713679
  0
ARC
  5
26
  8
0
 62
     1
 10
-3.7524799999999998
 20
-1.4049739999999991
 30
0.713679
 40
0.0875
 50
109.42557600000001
 51
269.99994299999997
  0
ARC
  5
27
  8
0
 62
     1
 10
-2.7474759999999989
 20
-1.4049739999999991
 30
0.713679
 40
0.0875
 50
270.0
 51
70.57423
  0
ARC
  5
28
  8
0
 62
     1
 10
-3.2499759999999989
 20
-1.219973999999999
 30
0.713679
 40
0.0875
 50
70.574286999999984
 51
109.42557600000001
  0
LINE
  5
29
  8
0
 62
     1
 39
0.713679
 10
-3.2790769999999991
 20
-1.137454999999999
 30
0.713679
 11
-3.7815809999999992
 21
-1.322454999999999
 31
0.713679
  0
LINE
  5
2A
  8
0
 62
     1
 39
0.713679
 10
-3.220874999999999
 20
-1.137454999999999
 30
0.713679
 11
-2.7183749999999991
 21
-1.322454999999999
 31
0.713679
  0
ARC
  5
2B
  8
0
 62
     1
 10
-3.2499950000000002
 20
-2.4699949999999991
 30
0.713679
 40
0.0875
 50
90.0
 51
106.1733269999999
  0
ARC
  5
2C
  8
0
 10
-3.2499950000000002
 20
-2.4699949999999991
 30
0.713679
 40
0.0875
 50
73.827765999999997
 51
89.999943000000002
  0
ARC
  5
2D
  8
0
 62
     1
 10
-3.7299799999999999
 20
-2.6324540000000001
 30
0.713679
 40
0.11
 50
106.1733269999999
 51
269.99994299999997
  0
ARC
  5
2E
  8
0
 62
     1
 10
-2.7699759999999989
 20
-2.6324540000000001
 30
0.713679
 40
0.11
 50
270.0
 51
73.827708999999999
  0
LINE
  5
2F
  8
0
 62
     1
 39
0.713679
 10
-2.7393380000000001
 20
-2.5268069999999989
 30
0.713679
 11
-3.2256239999999998
 21
-2.385956999999999
 31
0.713679
  0
LINE
  5
30
  8
0
 62
     1
 39
0.713679
 10
-3.7606190000000002
 20
-2.5268069999999989
 30
0.713679
 11
-3.2743679999999991
 21
-2.385958
 31
0.713679
  0
LINE
  5
31
  8
0
 62
     1
 39
0.713679
 10
-3.7299799999999999
 20
-3.3994539999999991
 30
0.713679
 11
-2.7699759999999989
 21
-3.3994539999999991
 31
0.713679
  0
ARC
  5
32
  8
0
 62
     1
 10
-2.7699759999999989
 20
-3.2574540000000001
 30
0.713679
 40
0.142
 50
270.0
 51
73.829982000000001
  0
LINE
  5
33
  8
0
 62
     1
 39
0.713679
 10
-2.7304309999999998
 20
-3.1210719999999998
 30
0.713679
 11
-3.2167169999999992
 21
-2.980221999999999
 31
0.713679
  0
ARC
  5
34
  8
0
 62
     1
 10
-3.2499950000000002
 20
-3.0949949999999991
 30
0.713679
 40
0.1195
 50
73.830494999999999
 51
89.999943000000002
  0
ARC
  5
35
  8
0
 62
     1
 10
-3.2499950000000002
 20
-3.0949949999999991
 30
0.713679
 40
0.1195
 50
89.999943000000002
 51
106.1705979999999
  0
LINE
  5
36
  8
0
 62
     1
 39
0.713679
 10
-3.2832759999999999
 20
-2.9802230000000001
 30
0.713679
 11
-3.7695269999999992
 21
-3.1210719999999998
 31
0.713679
  0
ARC
  5
37
  8
0
 62
     1
 10
-3.7299799999999999
 20
-3.2574540000000001
 30
0.713679
 40
0.142
 50
106.17106
 51
270.0
  0
LINE
  5
38
  8
0
 62
     1
 39
0.713679
 10
-3.7524799999999998
 20
-2.1494740000000001
 30
0.713679
 11
-2.7474759999999989
 21
-2.1494740000000001
 31
0.713679
  0
ARC
  5
39
  8
0
 62
     1
 10
-2.7474759999999989
 20
-2.0299740000000002
 30
0.713679
 40
0.1195
 50
270.0
 51
70.460821999999993
  0
LINE
  5
3A
  8
0
 62
     1
 39
0.713679
 10
-2.7075089999999991
 20
-1.9173560000000001
 30
0.713679
 11
-3.210008999999999
 21
-1.732356
 31
0.713679
  0
ARC
  5
3B
  8
0
 62
     1
 10
-3.2499759999999989
 20
-1.8449739999999999
 30
0.713679
 40
0.1195
 50
70.460870999999997
 51
109.5389909999999
  0
LINE
  5
3C
  8
0
 62
     1
 39
0.713679
 10
-3.289941999999999
 20
-1.732356
 30
0.713679
 11
-3.7924459999999991
 21
-1.9173560000000001
 31
0.713679
  0
ARC
  5
3D
  8
0
 62
     1
 10
-3.7524799999999998
 20
-2.0299740000000002
 30
0.713679
 40
0.1195
 50
109.5389909999999
 51
270.0
  0
LINE
  5
3E
  8
0
 62
     1
 39
0.687979
 10
-3.515228
 20
3.5525259999999999
 30
0.687979
 11
-2.984728
 21
3.5525259999999999
 31
0.687979
  0
ARC
  5
3F
  8
0
 62
     1
 10
-3.2487279999999989
 20
3.7025260000000002
 30
0.687979
 40
0.12
 50
23.653047999999998
 51
156.34695199999999
  0
LINE
  5
40
  8
0
 62
     1
 39
0.687979
 10
-3.4016980000000001
 20
3.7225259999999998
 30
0.687979
 11
-3.515228
 21
3.7225259999999998
 31
0.687979
  0
LINE
  5
41
  8
0
 62
     1
 39
0.687979
 10
-2.984728
 20
3.7225259999999998
 30
0.687979
 11
-3.095756999999999
 21
3.7225259999999998
 31
0.687979
  0
ARC
  5
42
  8
0
 62
     1
 10
-3.4016980000000001
 20
3.7695259999999999
 30
0.687979
 40
0.047
 50
270.0
 51
336.34695199999987
  0
ARC
  5
43
  8
0
 62
     1
 10
-3.095756999999999
 20
3.7695259999999999
 30
0.687979
 40
0.047
 50
203.65304800000001
 51
270.0
  0
ARC
  5
44
  8
0
 62
     1
 10
-2.984728
 20
3.6375259999999998
 30
0.687979
 40
0.085
 50
270.0
 51
90.0
  0
ARC
  5
45
  8
0
 62
     1
 10
-3.515228
 20
3.6375259999999998
 30
0.687979
 40
0.085
 50
90.0
 51
270.0
  0
LINE
  5
46
  8
0
 62
     1
 39
0.713679
 10
-2.793477999999999
 20
1.2300260000000001
 30
0.713679
 11
-3.078921999999999
 21
1.2300260000000001
 31
0.713679
  0
ARC
  5
47
  8
0
 62
     1
 10
-3.249978
 20
1.1695260000000001
 30
0.713679
 40
0.1555
 50
31.906590000000001
 51
148.09340999999989
  0
LINE
  5
48
  8
0
 62
     1
 39
0.713679
 10
-2.793477999999999
 20
1.0500259999999999
 30
0.713679
 11
-3.7064779999999988
 21
1.0500259999999999
 31
0.713679
  0
ARC
  5
49
  8
0
 62
     1
 10
-3.7064779999999988
 20
1.1400259999999991
 30
0.713679
 40
0.09
 50
90.0
 51
269.99994299999997
  0
ARC
  5
4A
  8
0
 62
     1
 10
-2.793477999999999
 20
1.1400259999999991
 30
0.713679
 40
0.09
 50
270.0
 51
89.999943000000002
  0
ARC
  5
4B
  8
0
 62
     1
 10
-3.078921999999999
 20
1.2760260000000001
 30
0.713679
 40
0.046
 50
211.90658999999991
 51
270.0
  0
ARC
  5
4C
  8
0
 62
     1
 10
-3.4210329999999991
 20
1.2760260000000001
 30
0.713679
 40
0.046
 50
270.0
 51
328.09341000000001
  0
LINE
  5
4D
  8
0
 62
     1
 39
0.713679
 10
-3.7064779999999988
 20
0.393026
 30
0.713679
 11
-2.793477999999999
 21
0.393026
 31
0.713679
  0
ARC
  5
4E
  8
0
 62
     1
 10
-2.793477999999999
 20
0.515026
 30
0.713679
 40
0.122
 50
270.0
 51
90.0
  0
LINE
  5
4F
  8
0
 62
     1
 39
0.713679
 10
-2.793477999999999
 20
0.637026
 30
0.713679
 11
-3.061987999999999
 21
0.637026
 31
0.713679
  0
ARC
  5
50
  8
0
 62
     1
 10
-3.249978
 20
0.5445260000000001
 30
0.713679
 40
0.1875
 50
36.380701999999999
 51
143.6192979999999
  0
LINE
  5
51
  8
0
 62
     1
 39
0.713679
 10
-3.4379669999999991
 20
0.637026
 30
0.713679
 11
-3.7064779999999988
 21
0.637026
 31
0.713679
  0
ARC
  5
52
  8
0
 62
     1
 10
-3.7064779999999988
 20
0.515026
 30
0.713679
 40
0.122
 50
90.0
 51
270.0
  0
ARC
  5
53
  8
0
 62
     1
 10
-3.061987999999999
 20
0.683026
 30
0.713679
 40
0.046
 50
216.38070200000001
 51
270.0
  0
ARC
  5
54
  8
0
 62
     1
 10
-3.4379669999999991
 20
0.683026
 30
0.713679
 40
0.046
 50
270.0
 51
323.61929800000001
  0
LINE
  5
55
  8
0
 62
     1
 39
0.713679
 10
-2.8934779999999991
 20
2.300025999999999
 30
0.713679
 11
-3.6064780000000001
 21
2.300025999999999
 31
0.713679
  0
ARC
  5
56
  8
0
 62
     1
 10
-3.6064780000000001
 20
2.3900259999999989
 30
0.713679
 40
0.09
 50
90.0
 51
269.99994299999997
  0
LINE
  5
57
  8
0
 62
     1
 39
0.713679
 10
-3.4210329999999991
 20
2.4800259999999992
 30
0.713679
 11
-3.6064780000000001
 21
2.4800259999999992
 31
0.713679
  0
ARC
  5
58
  8
0
 62
     1
 10
-3.4210329999999991
 20
2.526025999999999
 30
0.713679
 40
0.046
 50
270.0
 51
328.09341000000001
  0
ARC
  5
59
  8
0
 62
     1
 10
-3.249978
 20
2.419525999999999
 30
0.713679
 40
0.1555
 50
31.906590000000001
 51
148.09340999999989
  0
ARC
  5
5A
  8
0
 62
     1
 10
-3.078921999999999
 20
2.526025999999999
 30
0.713679
 40
0.046
 50
211.90658999999991
 51
270.0
  0
LINE
  5
5B
  8
0
 62
     1
 39
0.713679
 10
-2.8934779999999991
 20
2.4800259999999992
 30
0.713679
 11
-3.078921999999999
 21
2.4800259999999992
 31
0.713679
  0
ARC
  5
5C
  8
0
 62
     1
 10
-2.8934779999999991
 20
2.3900259999999989
 30
0.713679
 40
0.09
 50
270.0
 51
89.999943000000002
  0
LINE
  5
5D
  8
0
 62
     1
 39
0.5550100000000001
 10
-3.515228
 20
2.8955259999999989
 30
0.5550100000000001
 11
-2.984728
 21
2.8955259999999989
 31
0.5550100000000001
  0
ARC
  5
5E
  8
0
 62
     1
 10
-2.984728
 20
3.0125259999999989
 30
0.5550100000000001
 40
0.117
 50
270.0
 51
90.0
  0
LINE
  5
5F
  8
0
 62
     1
 39
0.5550100000000001
 10
-2.984728
 20
3.1295259999999989
 30
0.5550100000000001
 11
-3.0766810000000002
 21
3.1295259999999989
 31
0.5550100000000001
  0
ARC
  5
60
  8
0
 62
     1
 10
-3.2487279999999989
 20
3.0775259999999989
 30
0.5550100000000001
 40
0.152
 50
29.666402000000001
 51
150.33359799999991
  0
LINE
  5
61
  8
0
 62
     1
 39
0.5550100000000001
 10
-3.4207739999999989
 20
3.1295259999999989
 30
0.5550100000000001
 11
-3.515228
 21
3.1295259999999989
 31
0.5550100000000001
  0
ARC
  5
62
  8
0
 62
     1
 10
-3.515228
 20
3.0125259999999989
 30
0.5550100000000001
 40
0.117
 50
90.0
 51
270.0
  0
LINE
  5
63
  8
0
 62
     1
 39
0.713679
 10
-3.6064780000000001
 20
1.643025999999999
 30
0.713679
 11
-2.8934779999999991
 21
1.643025999999999
 31
0.713679
  0
ARC
  5
64
  8
0
 62
     1
 10
-2.8934779999999991
 20
1.7650259999999991
 30
0.713679
 40
0.122
 50
270.0
 51
90.0
  0
LINE
  5
65
  8
0
 62
     1
 39
0.713679
 10
-2.8934779999999991
 20
1.887025999999999
 30
0.713679
 11
-3.061987999999999
 21
1.887025999999999
 31
0.713679
  0
ARC
  5
66
  8
0
 62
     1
 10
-3.249978
 20
1.794525999999999
 30
0.713679
 40
0.1875
 50
36.380701999999999
 51
143.6192979999999
  0
LINE
  5
67
  8
0
 62
     1
 39
0.713679
 10
-3.4379669999999991
 20
1.887025999999999
 30
0.713679
 11
-3.6064780000000001
 21
1.887025999999999
 31
0.713679
  0
ARC
  5
68
  8
0
 62
     1
 10
-3.6064780000000001
 20
1.7650259999999991
 30
0.713679
 40
0.122
 50
90.0
 51
270.0
  0
ARC
  5
69
  8
0
 62
     1
 10
-3.0766810000000002
 20
3.1755259999999992
 30
0.5550100000000001
 40
0.046
 50
209.66640199999989
 51
270.0
  0
ARC
  5
6A
  8
0
 62
     1
 10
-3.4207739999999989
 20
3.1755259999999992
 30
0.5550100000000001
 40
0.046
 50
270.0
 51
330.33359799999988
  0
ARC
  5
6B
  8
0
 62
     1
 10
-3.061987999999999
 20
1.933025999999999
 30
0.713679
 40
0.046
 50
216.38070200000001
 51
270.0
  0
ARC
  5
6C
  8
0
 62
     1
 10
-3.4379669999999991
 20
1.933025999999999
 30
0.713679
 40
0.046
 50
270.0
 51
323.61929800000001
  0
LINE
  5
6D
  8
0
 39
0.999999
 10
-4.2499560000000001
 20
4.0000260000000001
 30
0.999999
 11
4.250043999999999
 21
4.0000260000000001
 31
0.999999
  0
LINE
  5
6E
  8
0
 39
0.999999
 10
-4.2499560000000001
 20
-3.499973999999999
 30
0.999999
 11
4.250043999999999
 21
-3.499973999999999
 31
0.999999
  0
LINE
  5
6F
  8
0
 39
0.999999
 10
0.4950370000000001
 20
4.9713659999999997
 30
0.999999
 11
-0.494963
 21
4.9713659999999997
 31
0.999999
  0
ARC
  5
70
  8
0
 10
-0.494963
 20
5.0963659999999997
 30
0.999999
 40
0.125
 50
90.0
 51
270.0
  0
LINE
  5
71
  8
0
 39
0.999999
 10
-0.494963
 20
5.2213659999999997
 30
0.999999
 11
-0.179888
 21
5.2213659999999997
 31
0.999999
  0
ARC
  5
72
  8
0
 10
-0.179888
 20
5.2683660000000003
 30
0.999999
 40
0.047
 50
270.0
 51
332.4156349999999
  0
ARC
  5
73
  8
0
 10
0.000037
 20
5.174366
 30
0.999999
 40
0.156
 50
27.584421999999989
 51
152.41563500000001
  0
ARC
  5
74
  8
0
 10
0.179962
 20
5.2683660000000003
 30
0.999999
 40
0.047
 50
207.58436499999991
 51
270.0
  0
LINE
  5
75
  8
0
 39
0.999999
 10
0.179962
 20
5.2213659999999997
 30
0.999999
 11
0.4950370000000001
 21
5.2213659999999997
 31
0.999999
  0
ARC
  5
76
  8
0
 10
0.4950370000000001
 20
5.0963659999999997
 30
1.9999979999999991
 40
0.125
 50
270.0
 51
90.0
  0
LINE
  5
77
  8
0
 39
1.9999979999999991
 10
0.620037
 20
4.9713659999999997
 30
1.9999979999999991
 11
0.8700370000000001
 21
4.9713659999999997
 31
1.9999979999999991
  0
LINE
  5
78
  8
0
 39
1.9999979999999991
 10
0.620037
 20
5.2213659999999997
 30
1.9999979999999991
 11
0.8700370000000001
 21
5.2213659999999997
 31
1.9999979999999991
  0
LINE
  5
79
  8
0
 39
1.9999979999999991
 10
0.745037
 20
4.8213660000000003
 30
1.9999979999999991
 11
0.745037
 21
4.9713659999999997
 31
1.9999979999999991
  0
LINE
  5
7A
  8
0
 39
1.9999979999999991
 10
0.745037
 20
5.2213659999999997
 30
1.9999979999999991
 11
0.745037
 21
5.3713660000000001
 31
1.9999979999999991
  0
LINE
  5
7B
  8
0
 39
1.9999979999999991
 10
0.726838
 20
4.8963660000000004
 30
1.9999979999999991
 11
0.745037
 21
4.9713659999999997
 31
1.9999979999999991
  0
LINE
  5
7C
  8
0
 39
1.9999979999999991
 10
0.745037
 20
5.2213659999999997
 30
1.9999979999999991
 11
0.763235
 21
5.296365999999999
 31
1.9999979999999991
  0
LINE
  5
7D
  8
0
 39
1.9999979999999991
 10
0.726838
 20
5.296365999999999
 30
1.9999979999999991
 11
0.745037
 21
5.2213659999999997
 31
1.9999979999999991
  0
LINE
  5
7E
  8
0
 39
1.9999979999999991
 10
0.745037
 20
4.9713659999999997
 30
1.9999979999999991
 11
0.763235
 21
4.8963660000000004
 31
1.9999979999999991
  0
LINE
  5
7F
  8
0
 39
1.9999979999999991
 10
0.726838
 20
4.8963660000000004
 30
1.9999979999999991
 11
0.763235
 21
4.8963660000000004
 31
1.9999979999999991
  0
LINE
  5
80
  8
0
 39
1.9999979999999991
 10
0.726838
 20
5.296365999999999
 30
1.9999979999999991
 11
0.763235
 21
5.296365999999999
 31
1.9999979999999991
  0
LINE
  5
81
  8
0
 39
1.9999979999999991
 10
-0.6199630000000002
 20
4.9713659999999997
 30
1.9999979999999991
 11
-0.8699629999999999
 21
4.9713659999999997
 31
1.9999979999999991
  0
LINE
  5
82
  8
0
 39
1.9999979999999991
 10
-0.119094
 20
5.3303659999999997
 30
1.9999979999999991
 11
-0.8699629999999999
 21
5.3303659999999997
 31
1.9999979999999991
  0
LINE
  5
83
  8
0
 39
1.9999979999999991
 10
-0.7449630000000002
 20
5.3303659999999997
 30
1.9999979999999991
 11
-0.7449630000000002
 21
5.4803660000000001
 31
1.9999979999999991
  0
LINE
  5
84
  8
0
 39
1.9999979999999991
 10
-0.7449630000000002
 20
5.3303659999999997
 30
1.9999979999999991
 11
-0.763162
 21
5.4053659999999999
 31
1.9999979999999991
  0
LINE
  5
85
  8
0
 39
1.9999979999999991
 10
-0.726765
 20
5.4053659999999999
 30
1.9999979999999991
 11
-0.7449630000000002
 21
5.3303659999999997
 31
1.9999979999999991
  0
LINE
  5
86
  8
0
 39
1.9999979999999991
 10
-0.726765
 20
5.4053659999999999
 30
1.9999979999999991
 11
-0.763162
 21
5.4053659999999999
 31
1.9999979999999991
  0
LINE
  5
87
  8
0
 39
1.9999979999999991
 10
-0.6199630000000002
 20
4.8863659999999998
 30
1.9999979999999991
 11
-0.6199630000000002
 21
4.6213660000000001
 31
1.9999979999999991
  0
LINE
  5
88
  8
0
 39
1.9999979999999991
 10
0.620037
 20
4.8863659999999998
 30
1.9999979999999991
 11
0.620037
 21
4.6213660000000001
 31
1.9999979999999991
  0
LINE
  5
89
  8
0
 39
1.9999979999999991
 10
-0.094963
 20
4.7463660000000001
 30
1.9999979999999991
 11
-0.6199630000000002
 21
4.7463660000000001
 31
1.9999979999999991
  0
LINE
  5
8A
  8
0
 39
1.9999979999999991
 10
0.620037
 20
4.7463660000000001
 30
1.9999979999999991
 11
0.095037
 21
4.7463660000000001
 31
1.9999979999999991
  0
LINE
  5
8B
  8
0
 39
1.9999979999999991
 10
-0.544963
 20
4.7645650000000002
 30
1.9999979999999991
 11
-0.6199630000000002
 21
4.7463660000000001
 31
1.9999979999999991
  0
LINE
  5
8C
  8
0
 39
1.9999979999999991
 10
0.620037
 20
4.7463660000000001
 30
1.9999979999999991
 11
0.545037
 21
4.7281680000000001
 31
1.9999979999999991
  0
LINE
  5
8D
  8
0
 39
1.9999979999999991
 10
0.545037
 20
4.7645650000000002
 30
1.9999979999999991
 11
0.620037
 21
4.7463660000000001
 31
1.9999979999999991
  0
LINE
  5
8E
  8
0
 39
1.9999979999999991
 10
-0.6199630000000002
 20
4.7463660000000001
 30
1.9999979999999991
 11
-0.544963
 21
4.7281680000000001
 31
1.9999979999999991
  0
LINE
  5
8F
  8
0
 39
1.9999979999999991
 10
-0.544963
 20
4.7645650000000002
 30
1.9999979999999991
 11
-0.544963
 21
4.7281680000000001
 31
1.9999979999999991
  0
LINE
  5
90
  8
0
 39
1.9999979999999991
 10
0.545037
 20
4.7645650000000002
 30
1.9999979999999991
 11
0.545037
 21
4.7281680000000001
 31
1.9999979999999991
  0
LINE
  5
91
  8
0
 39
0.999999
 10
-4.2499560000000001
 20
4.5000260000000001
 30
0.999999
 11
4.250043999999999
 21
4.5000260000000001
 31
0.999999
  0
LINE
  5
92
  8
0
 62
     1
 39
0.713679
 10
-3.7449779999999988
 20
-0.209974
 30
0.713679
 11
-2.754977999999999
 21
-0.209974
 31
0.713679
  0
ARC
  5
93
  8
0
 62
     1
 10
-2.754977999999999
 20
-0.116974
 30
1.7136779999999989
 40
0.093
 50
270.0
 51
90.0
  0
LINE
  5
94
  8
0
 62
     1
 39
0.713679
 10
-2.754977999999999
 20
-0.023974
 30
0.713679
 11
-3.0700529999999988
 21
-0.023974
 31
0.713679
  0
ARC
  5
95
  8
0
 62
     1
 10
-3.0700529999999988
 20
0.055026
 30
0.713679
 40
0.079
 50
207.58436499999991
 51
270.0
  0
ARC
  5
96
  8
0
 62
     1
 10
-3.249978
 20
-0.038974
 30
0.713679
 40
0.124
 50
27.584364999999998
 51
152.41563500000001
  0
ARC
  5
97
  8
0
 62
     1
 10
-3.429902999999999
 20
0.055026
 30
0.713679
 40
0.079
 50
270.0
 51
332.4156349999999
  0
LINE
  5
98
  8
0
 62
     1
 39
0.713679
 10
-3.429902999999999
 20
-0.023974
 30
0.713679
 11
-3.7449779999999988
 21
-0.023974
 31
0.713679
  0
ARC
  5
99
  8
0
 62
     1
 10
-3.7449779999999988
 20
-0.116974
 30
0.713679
 40
0.093
 50
90.0
 51
270.0
  0
LINE
  5
9A
  8
0
 62
     1
 39
0.713679
 10
-3.7449779999999988
 20
-0.616974
 30
0.713679
 11
-3.429902999999999
 21
-0.616974
 31
0.713679
  0
ARC
  5
9B
  8
0
 62
     1
 10
-3.429902999999999
 20
-0.5699740000000001
 30
0.713679
 40
0.047
 50
270.0
 51
332.4156349999999
  0
ARC
  5
9C
  8
0
 62
     1
 10
-3.249978
 20
-0.663974
 30
0.713679
 40
0.156
 50
27.584421999999989
 51
152.41563500000001
  0
ARC
  5
9D
  8
0
 62
     1
 10
-3.0700529999999988
 20
-0.5699740000000001
 30
0.713679
 40
0.047
 50
207.58436499999991
 51
270.0
  0
LINE
  5
9E
  8
0
 62
     1
 39
0.713679
 10
-3.0700529999999988
 20
-0.616974
 30
0.713679
 11
-2.754977999999999
 21
-0.616974
 31
0.713679
  0
ARC
  5
9F
  8
0
 62
     1
 10
-2.754977999999999
 20
-0.741974
 30
1.7136779999999989
 40
0.125
 50
270.0
 51
90.0
  0
LINE
  5
A0
  8
0
 62
     1
 39
0.713679
 10
-2.754977999999999
 20
-0.866974
 30
0.713679
 11
-3.7449779999999988
 21
-0.866974
 31
0.713679
  0
ARC
  5
A1
  8
0
 62
     1
 10
-3.7449779999999988
 20
-0.741974
 30
0.713679
 40
0.125
 50
90.0
 51
270.0
  0
LINE
  5
A2
  8
0
 39
0.999999
 10
-4.2499560000000001
 20
-3.999973999999999
 30
0.999999
 11
4.250043999999999
 21
-3.999973999999999
 31
0.999999
  0
LINE
  5
A3
  8
0
 39
0.999999
 10
-4.25
 20
5.5000260000000001
 30
0.999999
 11
4.25
 21
5.5000260000000001
 31
0.999999
  0
LINE
  5
A4
  8
0
 62
     1
 39
0.713679
 10
-3.7064779999999988
 20
1.2300260000000001
 30
0.713679
 11
-3.4210329999999991
 21
1.2300260000000001
 31
0.713679
  0
LINE
  5
A5
  8
0
 10
-4.25
 20
-5.5
 30
0.0
 11
4.25
 21
-5.5
 31
0.0
  0
LINE
  5
A6
  8
0
 10
4.25
 20
-5.5
 30
0.0
 11
4.25
 21
5.5
 31
0.0
  0
LINE
  5
A7
  8
0
 10
-4.25
 20
5.5
 30
0.0
 11
-4.25
 21
-5.5
 31
0.0
  0
LINE
  5
A8
  8
0
 39
0.8992049999999998
 10
0.223911
 20
-4.3150339999999989
 30
0.8992049999999998
 11
0.223564
 21
-4.7076630000000002
 31
0.8992049999999998
  0
LINE
  5
A9
  8
0
 39
0.8992049999999998
 10
0.223213
 20
-5.1051890000000002
 30
0.8992049999999998
 11
0.223112
 21
-5.2195080000000003
 31
0.8992049999999998
  0
LINE
  5
AA
  8
0
 39
0.8992049999999998
 10
0.223112
 20
-5.2195080000000003
 30
0.8992049999999998
 11
0.60949
 21
-5.2195080000000003
 31
0.8992049999999998
  0
LINE
  5
AB
  8
0
 39
0.8992049999999998
 10
0.60949
 20
-5.2195080000000003
 30
0.8992049999999998
 11
0.60949
 21
-4.8331299999999997
 31
0.8992049999999998
  0
LINE
  5
AC
  8
0
 39
0.8992049999999998
 10
0.60949
 20
-4.8331299999999997
 30
0.8992049999999998
 11
0.863821
 21
-5.224060999999999
 31
0.8992049999999998
  0
LINE
  5
AD
  8
0
 39
0.8992049999999998
 10
0.863821
 20
-5.224060999999999
 30
0.8992049999999998
 11
1.324319
 21
-5.224060999999999
 31
0.8992049999999998
  0
LINE
  5
AE
  8
0
 39
0.8992049999999998
 10
1.324319
 20
-5.224060999999999
 30
0.8992049999999998
 11
0.945498
 21
-4.7568039999999989
 31
0.8992049999999998
  0
LINE
  5
AF
  8
0
 39
0.8992049999999998
 10
0.945498
 20
-4.7568039999999989
 30
0.8992049999999998
 11
1.2841830000000001
 21
-4.3150339999999989
 31
0.8992049999999998
  0
LINE
  5
B0
  8
0
 39
0.8992049999999998
 10
1.2841830000000001
 20
-4.3150339999999989
 30
0.8992049999999998
 11
0.853118
 21
-4.3150339999999989
 31
0.8992049999999998
  0
LINE
  5
B1
  8
0
 39
0.8992049999999998
 10
0.853118
 20
-4.3150339999999989
 30
0.8992049999999998
 11
0.6068140000000001
 21
-4.6979379999999988
 31
0.8992049999999998
  0
LINE
  5
B2
  8
0
 39
0.8992049999999998
 10
0.6068140000000001
 20
-4.6979379999999988
 30
0.8992049999999998
 11
0.6068140000000001
 21
-4.3150339999999989
 31
0.8992049999999998
  0
LINE
  5
B3
  8
0
 39
0.8992049999999998
 10
0.6068140000000001
 20
-4.3150339999999989
 30
0.8992049999999998
 11
0.223911
 21
-4.3150339999999989
 31
0.8992049999999998
  0
ARC
  5
B4
  8
0
 10
1.667800999999999
 20
-4.8060869999999998
 30
0.8992049999999998
 40
0.088391
 50
139.7871189999999
 51
181.687568
  0
ARC
  5
B5
  8
0
 10
1.659586
 20
-4.8050559999999987
 30
0.8992049999999998
 40
0.081577
 50
87.189328000000017
 51
136.61280899999991
  0
ARC
  5
B6
  8
0
 10
1.6649149999999999
 20
-4.816783
 30
0.8992049999999998
 40
0.093215
 50
46.219941999999989
 51
90.816900000000004
  0
ARC
  5
B7
  8
0
 10
1.6719649999999999
 20
-4.8094130000000002
 30
0.8992049999999998
 40
0.083016
 50
0.498931
 51
46.213536999999988
  0
LINE
  5
B8
  8
0
 39
0.8992049999999998
 10
1.754977999999999
 20
-4.8086900000000004
 30
0.8992049999999998
 11
1.579448
 21
-4.8086900000000004
 31
0.8992049999999998
  0
ARC
  5
B9
  8
0
 10
1.8030470000000001
 20
-4.909637
 30
0.8992049999999998
 40
0.321739
 50
354.76010200000002
 51
24.297255
  0
ARC
  5
BA
  8
0
 10
1.7988179999999989
 20
-4.9172779999999987
 30
0.8992049999999998
 40
0.328779
 50
25.207744999999999
 51
52.799826000000003
  0
ARC
  5
BB
  8
0
 10
1.714515
 20
-5.0293479999999997
 30
0.8992049999999998
 40
0.469015
 50
52.874063
 51
73.978018000000006
  0
ARC
  5
BC
  8
0
 10
1.6564220000000001
 20
-5.2223489999999986
 30
0.8992049999999998
 40
0.670558
 50
73.758662999999999
 51
90.379525999999998
  0
ARC
  5
BD
  8
0
 10
1.6456999999999991
 20
-5.131511999999999
 30
0.8992049999999998
 40
0.579741
 50
89.379324999999994
 51
112.022728
  0
ARC
  5
BE
  8
0
 10
1.567998999999999
 20
-4.9454379999999993
 30
0.8992049999999998
 40
0.378115
 50
111.680362
 51
142.06842700000001
  0
ARC
  5
BF
  8
0
 10
1.510529999999999
 20
-4.893669
 30
0.8992049999999998
 40
0.301013
 50
143.11650800000001
 51
180.596474
  0
ARC
  5
C0
  8
0
 10
1.487806999999999
 20
-4.9008659999999997
 30
0.8992049999999998
 40
0.278303
 50
179.16344699999991
 51
210.49427099999991
  0
ARC
  5
C1
  8
0
 10
1.5109339999999989
 20
-4.8799960000000002
 30
0.8992049999999998
 40
0.308885
 50
211.653133
 51
238.7711229999999
  0
ARC
  5
C2
  8
0
 10
1.6099259999999991
 20
-4.718564999999999
 30
0.8992049999999998
 40
0.4982490000000001
 50
238.661563
 51
257.13702399999988
  0
ARC
  5
C3
  8
0
 10
1.669945
 20
-4.4747909999999997
 30
0.8992049999999998
 40
0.7492800000000001
 50
256.812456
 51
270.29017199999998
  0
ARC
  5
C4
  8
0
 10
1.673049
 20
-4.5341930000000001
 30
0.8992049999999998
 40
0.6898680000000002
 50
270.05738400000001
 51
281.385897
  0
ARC
  5
C5
  8
0
 10
1.696958
 20
-4.6386370000000001
 30
0.8992049999999998
 40
0.5827670000000002
 50
281.10870399999988
 51
294.48458299999987
  0
ARC
  5
C6
  8
0
 10
1.7840569999999989
 20
-4.8245500000000003
 30
0.8992049999999998
 40
0.37748
 50
294.14844699999998
 51
313.47825999999998
  0
ARC
  5
C7
  8
0
 10
1.8756250000000001
 20
-4.9216160000000002
 30
0.8992049999999998
 40
0.24404
 50
313.55900400000002
 51
341.82159599999989
  0
LINE
  5
C8
  8
0
 39
0.8992049999999998
 10
2.1074850000000001
 20
-4.9977510000000001
 30
0.8992049999999998
 11
1.7433730000000001
 21
-4.9977510000000001
 31
0.8992049999999998
  0
ARC
  5
C9
  8
0
 10
1.6792139999999991
 20
-4.9813409999999996
 30
0.8992049999999998
 40
0.066225
 50
305.449703
 51
345.65353399999992
  0
ARC
  5
CA
  8
0
 10
1.669316
 20
-4.9670129999999988
 30
0.8992049999999998
 40
0.083639
 50
269.05567300000001
 51
305.28029199999992
  0
ARC
  5
CB
  8
0
 10
1.6627759999999989
 20
-4.9624739999999994
 30
0.8992049999999998
 40
0.088317
 50
233.44959299999999
 51
273.35047500000002
  0
ARC
  5
CC
  8
0
 10
1.661395999999999
 20
-4.9741429999999989
 30
0.8992049999999998
 40
0.078339
 50
192.72624399999989
 51
229.17341499999989
  0
ARC
  5
CD
  8
0
 10
1.786232
 20
-4.9436589999999994
 30
0.8992049999999998
 40
0.206836
 50
178.7149719999999
 51
193.34542699999989
  0
LINE
  5
CE
  8
0
 39
0.8992049999999998
 10
1.579448
 20
-4.9390199999999993
 30
0.8992049999999998
 11
2.1234410000000001
 21
-4.9390199999999993
 31
0.8992049999999998
  0
LINE
  5
CF
  8
0
 39
0.8992049999999998
 10
-2.3919950000000001
 20
-4.2550339999999993
 30
0.8992049999999998
 11
-2.5390890000000002
 21
-5.2040969999999991
 31
0.8992049999999998
  0
LINE
  5
D0
  8
0
 39
0.8992049999999998
 10
-2.5390890000000002
 20
-5.2040969999999991
 30
0.8992049999999998
 11
-2.7932209999999991
 21
-5.2040969999999991
 31
0.8992049999999998
  0
LINE
  5
D1
  8
0
 39
0.8992049999999998
 10
-2.7932209999999991
 20
-5.2040969999999991
 30
0.8992049999999998
 11
-2.753622
 21
-5.0335119999999991
 31
0.8992049999999998
  0
LINE
  5
D2
  8
0
 39
0.8992049999999998
 10
-2.753622
 20
-5.0335119999999991
 30
0.8992049999999998
 11
-2.8426569999999991
 21
-5.0335119999999991
 31
0.8992049999999998
  0
LINE
  5
D3
  8
0
 39
0.8992049999999998
 10
-2.8426569999999991
 20
-5.0335119999999991
 30
0.8992049999999998
 11
-2.909378999999999
 21
-5.2040969999999991
 31
0.8992049999999998
  0
LINE
  5
D4
  8
0
 39
0.8992049999999998
 10
-2.909378999999999
 20
-5.2040969999999991
 30
0.8992049999999998
 11
-3.1664590000000001
 21
-5.2040969999999991
 31
0.8992049999999998
  0
LINE
  5
D5
  8
0
 39
0.8992049999999998
 10
-3.1664590000000001
 20
-5.2040969999999991
 30
0.8992049999999998
 11
-2.7510819999999989
 21
-4.2550339999999993
 31
0.8992049999999998
  0
LINE
  5
D6
  8
0
 39
0.8992049999999998
 10
-2.7510819999999989
 20
-4.2550339999999993
 30
0.8992049999999998
 11
-2.3919950000000001
 21
-4.2550339999999993
 31
0.8992049999999998
  0
ARC
  5
D7
  8
0
 10
8.7084329999999994
 20
-7.0542249999999989
 30
0.8992049999999998
 40
11.625799000000001
 50
167.1428469999999
 51
169.14733399999989
  0
ARC
  5
D8
  8
0
 10
5.457249
 20
-8.1229130000000005
 30
0.8992049999999998
 40
8.8713560000000005
 50
155.66468599999999
 51
158.45641299999991
  0
LINE
  5
D9
  8
0
 39
0.8992049999999998
 10
-2.79434
 20
-4.865272
 30
0.8992049999999998
 11
-2.709433999999999
 21
-4.865272
 31
0.8992049999999998
  0
LINE
  5
DA
  8
0
 39
0.8992049999999998
 10
-2.0314099999999988
 20
-4.4262050000000004
 30
0.8992049999999998
 11
-2.058046
 21
-4.5000660000000003
 31
0.8992049999999998
  0
ARC
  5
DB
  8
0
 10
-1.8396250000000001
 20
-4.697114
 30
0.8992049999999998
 40
0.29417
 50
116.74343500000001
 51
137.94483500000001
  0
ARC
  5
DC
  8
0
 10
-1.8778360000000001
 20
-4.622306
 30
0.8992049999999998
 40
0.210169
 50
90.029929000000024
 51
116.61799499999989
  0
ARC
  5
DD
  8
0
 10
-1.872525999999999
 20
-4.5444389999999988
 30
0.8992049999999998
 40
0.132413
 50
56.423822999999992
 51
92.345809000000003
  0
ARC
  5
DE
  8
0
 10
-1.873794
 20
-4.5331219999999997
 30
0.8992049999999998
 40
0.123901
 50
15.473380999999989
 51
53.039243999999989
  0
ARC
  5
DF
  8
0
 10
-1.5165200000000001
 20
-4.726659999999999
 30
0.8992049999999998
 40
0.3285179999999999
 50
117.177419
 51
136.38993099999999
  0
ARC
  5
E0
  8
0
 10
-1.574695
 20
-4.6127060000000002
 30
0.8992049999999998
 40
0.200573
 50
90.388402999999997
 51
117.26211499999989
  0
ARC
  5
E1
  8
0
 10
-1.5729729999999991
 20
-4.5863480000000001
 30
0.8992049999999998
 40
0.174238
 50
73.288255000000007
 51
91.013320999999976
  0
ARC
  5
E2
  8
0
 10
-1.5510170000000001
 20
-4.51234
 30
0.8992049999999998
 40
0.097043
 50
46.93141
 51
73.13917099999999
  0
ARC
  5
E3
  8
0
 10
-1.544775
 20
-4.5078779999999989
 30
0.8992049999999998
 40
0.089534
 50
356.368382
 51
47.899647999999992
  0
ARC
  5
E4
  8
0
 10
-1.781779
 20
-4.491846999999999
 30
0.8992049999999998
 40
0.327079
 50
346.33918399999988
 51
356.19540699999999
  0
ARC
  5
E5
  8
0
 10
-2.5864729999999989
 20
-4.3095239999999988
 30
0.8992049999999998
 40
1.1521410000000001
 50
342.74347999999992
 51
346.97983599999998
  0
LINE
  5
E6
  8
0
 39
0.8992049999999998
 10
-1.4861949999999999
 20
-4.6513059999999991
 30
0.8992049999999998
 11
-1.6546389999999991
 21
-5.2040969999999991
 31
0.8992049999999998
  0
LINE
  5
E7
  8
0
 39
0.8992049999999998
 10
-1.6546389999999991
 20
-5.2040969999999991
 30
0.8992049999999998
 11
-1.8857749999999991
 21
-5.2040969999999991
 31
0.8992049999999998
  0
LINE
  5
E8
  8
0
 39
0.8992049999999998
 10
-1.8857749999999991
 20
-5.2040969999999991
 30
0.8992049999999998
 11
-1.731263999999999
 21
-4.6970309999999991
 31
0.8992049999999998
  0
ARC
  5
E9
  8
0
 10
-3.299456999999999
 20
-4.2100900000000001
 30
0.8992049999999998
 40
1.6420539999999999
 50
342.74984699999999
 51
345.67258599999991
  0
ARC
  5
EA
  8
0
 10
-1.9169349999999989
 20
-4.5569940000000004
 30
0.8992049999999998
 40
0.21677
 50
344.08426700000001
 51
355.51960799999989
  0
ARC
  5
EB
  8
0
 10
-1.724002
 20
-4.5712229999999998
 30
0.8992049999999998
 40
0.023332
 50
353.34411399999988
 51
41.008426
  0
ARC
  5
EC
  8
0
 10
-1.7227490000000001
 20
-4.574783
 30
0.8992049999999998
 40
0.02497
 50
49.086655
 51
94.606137000000004
  0
ARC
  5
ED
  8
0
 10
-1.725145999999999
 20
-4.5953460000000002
 30
0.8992049999999998
 40
0.045454
 50
89.505906999999993
 51
151.0471179999999
  0
ARC
  5
EE
  8
0
 10
-1.5264070000000001
 20
-4.7009499999999989
 30
0.8992049999999998
 40
0.270503
 50
151.85264799999999
 51
161.69523699999999
  0
ARC
  5
EF
  8
0
 10
-0.158456
 20
-5.1913849999999986
 30
0.8992049999999998
 40
1.723641999999999
 50
160.49898300000001
 51
163.33307599999989
  0
LINE
  5
F0
  8
0
 39
0.8992049999999998
 10
-1.8096849999999991
 20
-4.6970309999999991
 30
0.8992049999999998
 11
-1.9641959999999989
 21
-5.2040969999999991
 31
0.8992049999999998
  0
LINE
  5
F1
  8
0
 39
0.8992049999999998
 10
-1.9641959999999989
 20
-5.2040969999999991
 30
0.8992049999999998
 11
-2.1953320000000001
 21
-5.2040969999999991
 31
0.8992049999999998
  0
LINE
  5
F2
  8
0
 39
0.8992049999999998
 10
-2.1953320000000001
 20
-5.2040969999999991
 30
0.8992049999999998
 11
-2.044751999999999
 21
-4.7099269999999986
 31
0.8992049999999998
  0
ARC
  5
F3
  8
0
 10
-4.4472639999999988
 20
-3.9670669999999988
 30
0.8992049999999998
 40
2.514737999999999
 50
342.81832099999991
 51
344.987008
  0
ARC
  5
F4
  8
0
 10
-2.2898239999999999
 20
-4.5381530000000003
 30
0.8992049999999998
 40
0.283098
 50
343.51621299999999
 51
352.97904199999988
  0
ARC
  5
F5
  8
0
 10
-2.0291700000000001
 20
-4.5694650000000001
 30
0.8992049999999998
 40
0.020586
 50
350.79865799999988
 51
42.303269
  0
ARC
  5
F6
  8
0
 10
-2.030327999999999
 20
-4.5758039999999989
 30
0.8992049999999998
 40
0.026004
 50
50.948842999999989
 51
94.887196000000003
  0
ARC
  5
F7
  8
0
 10
-2.0312320000000001
 20
-4.5980579999999991
 30
0.8992049999999998
 40
0.048182
 50
91.559468999999993
 51
131.914422
  0
ARC
  5
F8
  8
0
 10
-2.0227020000000002
 20
-4.6142129999999986
 30
0.8992049999999998
 40
0.066052
 50
128.0562689999999
 51
159.90092999999999
  0
ARC
  5
F9
  8
0
 10
-0.58338
 20
-5.1135919999999988
 30
0.8992049999999998
 40
1.589534
 50
160.82548600000001
 51
163.599602
  0
LINE
  5
FA
  8
0
 39
0.8992049999999998
 10
-2.1082389999999989
 20
-4.6647899999999991
 30
0.8992049999999998
 11
-2.2725749999999989
 21
-5.2040969999999991
 31
0.8992049999999998
  0
LINE
  5
FB
  8
0
 39
0.8992049999999998
 10
-2.2725749999999989
 20
-5.2040969999999991
 30
0.8992049999999998
 11
-2.503711
 21
-5.2040969999999991
 31
0.8992049999999998
  0
LINE
  5
FC
  8
0
 39
0.8992049999999998
 10
-2.503711
 20
-5.2040969999999991
 30
0.8992049999999998
 11
-2.2666740000000001
 21
-4.4262050000000004
 31
0.8992049999999998
  0
LINE
  5
FD
  8
0
 39
0.8992049999999998
 10
-2.2666740000000001
 20
-4.4262050000000004
 30
0.8992049999999998
 11
-2.0314099999999988
 21
-4.4262050000000004
 31
0.8992049999999998
  0
LINE
  5
FE
  8
0
 39
0.8992049999999998
 10
-0.9188449999999999
 20
-4.8289260000000001
 30
0.8992049999999998
 11
-1.227223999999999
 21
-4.8289260000000001
 31
0.8992049999999998
  0
LINE
  5
FF
  8
0
 39
0.8992049999999998
 10
-1.227223999999999
 20
-4.8289260000000001
 30
0.8992049999999998
 11
-1.2784889999999991
 21
-4.9971659999999991
 31
0.8992049999999998
  0
ARC
  5
100
  8
0
 10
-0.8583529999999999
 20
-5.1298449999999987
 30
0.8992049999999998
 40
0.4405880000000001
 50
162.4739449999999
 51
168.30670900000001
  0
ARC
  5
101
  8
0
 10
-1.2201690000000001
 20
-5.0578620000000001
 30
0.8992049999999998
 40
0.071749
 50
166.037205
 51
185.8430229999999
  0
ARC
  5
102
  8
0
 10
-1.2752499999999991
 20
-5.062492999999999
 30
0.8992049999999998
 40
0.016512
 50
189.31817699999991
 51
238.6860889999999
  0
ARC
  5
103
  8
0
 10
-1.2684340000000001
 20
-5.0477679999999987
 30
0.8992049999999998
 40
0.032686
 50
241.89539099999999
 51
273.02928199999991
  0
ARC
  5
104
  8
0
 10
-1.2643839999999991
 20
-5.0310040000000003
 30
0.8992049999999998
 40
0.049458
 50
267.30726399999998
 51
323.42397399999999
  0
ARC
  5
105
  8
0
 10
-1.340387999999999
 20
-4.9785339999999989
 30
0.8992049999999998
 40
0.141797
 50
324.69813599999992
 51
338.46148099999988
  0
ARC
  5
106
  8
0
 10
-1.6719090000000001
 20
-4.8394589999999988
 30
0.8992049999999998
 40
0.5012840000000001
 50
337.58670899999993
 51
343.48874999999992
  0
LINE
  5
107
  8
0
 39
0.8992049999999998
 10
-1.191295999999999
 20
-4.9819259999999996
 30
0.8992049999999998
 11
-1.1600360000000001
 21
-4.87934
 31
0.8992049999999998
  0
LINE
  5
108
  8
0
 39
0.8992049999999998
 10
-1.1600360000000001
 20
-4.87934
 30
0.8992049999999998
 11
-0.9342069999999999
 21
-4.87934
 31
0.8992049999999998
  0
LINE
  5
109
  8
0
 39
0.8992049999999998
 10
-0.9342069999999999
 20
-4.87934
 30
0.8992049999999998
 11
-0.9517129999999999
 21
-4.9367879999999991
 31
0.8992049999999998
  0
ARC
  5
10A
  8
0
 10
-1.5382769999999999
 20
-4.7719269999999989
 30
0.8992049999999998
 40
0.6092920000000001
 50
333.10123299999998
 51
344.30128999999988
  0
ARC
  5
10B
  8
0
 10
-1.2832870000000001
 20
-4.8805909999999999
 30
0.8992049999999998
 40
0.33324
 50
311.48371400000002
 51
329.92667299999988
  0
ARC
  5
10C
  8
0
 10
-1.281790999999999
 20
-4.897869
 30
0.8992049999999998
 40
0.319472
 50
290.8223089999999
 51
313.33575499999989
  0
ARC
  5
10D
  8
0
 10
-1.2961860000000001
 20
-4.8312599999999994
 30
0.8992049999999998
 40
0.3869829999999999
 50
268.84787899999998
 51
289.30852900000002
  0
ARC
  5
10E
  8
0
 10
-1.3134669999999991
 20
-4.8930280000000002
 30
0.8992049999999998
 40
0.325276
 50
248.89067299999991
 51
271.673563
  0
ARC
  5
10F
  8
0
 10
-1.3634349999999991
 20
-5.0321889999999989
 30
0.8992049999999998
 40
0.177492
 50
231.365543
 51
247.75964799999991
  0
ARC
  5
110
  8
0
 10
-1.400495
 20
-5.0792199999999994
 30
0.8992049999999998
 40
0.117616
 50
209.5741449999999
 51
231.163736
  0
ARC
  5
111
  8
0
 10
-1.358063
 20
-5.0607280000000001
 30
0.8992049999999998
 40
0.163718
 50
177.65493799999999
 51
207.87333699999999
  0
ARC
  5
112
  8
0
 10
-1.1885179999999991
 20
-5.0717449999999991
 30
0.8992049999999998
 40
0.333598
 50
167.23766900000001
 51
176.95575400000001
  0
ARC
  5
113
  8
0
 10
-0.617304
 20
-5.1940349999999986
 30
0.8992049999999998
 40
0.91774
 50
162.72773499999991
 51
167.66945699999991
  0
LINE
  5
114
  8
0
 39
0.8992049999999998
 10
-1.4936590000000001
 20
-4.9215470000000003
 30
0.8992049999999998
 11
-1.4245289999999999
 21
-4.694685999999999
 31
0.8992049999999998
  0
ARC
  5
115
  8
0
 10
-0.7958569999999999
 20
-4.8818449999999993
 30
0.8992049999999998
 40
0.6559400000000001
 50
154.89424500000001
 51
163.42145500000001
  0
ARC
  5
116
  8
0
 10
-1.0469250000000001
 20
-4.7632190000000003
 30
0.8992049999999998
 40
0.378261
 50
142.71307200000001
 51
155.02947499999991
  0
ARC
  5
117
  8
0
 10
-1.117796
 20
-4.712934999999999
 30
0.8992049999999998
 40
0.291427
 50
112.55127400000001
 51
142.13755800000001
  0
ARC
  5
118
  8
0
 10
-1.0770040000000001
 20
-4.7955189999999996
 30
0.8992049999999998
 40
0.383388
 50
89.680458000000002
 51
113.44821999999991
  0
ARC
  5
119
  8
0
 10
-1.069863
 20
-4.781191999999999
 30
0.8992049999999998
 40
0.369089
 50
76.927922999999993
 51
90.776609999999991
  0
ARC
  5
11A
  8
0
 10
-1.0285200000000001
 20
-4.6057629999999987
 30
0.8992049999999998
 40
0.188856
 50
55.436822999999997
 51
77.107928000000001
  0
ARC
  5
11B
  8
0
 10
-0.9953409999999999
 20
-4.5637249999999989
 30
0.8992049999999998
 40
0.135459
 50
5.611187000000001
 51
56.906621999999999
  0
ARC
  5
11C
  8
0
 10
-1.138922999999999
 20
-4.5771220000000001
 30
0.8992049999999998
 40
0.279664
 50
350.06463500000001
 51
5.4665119999999998
  0
ARC
  5
11D
  8
0
 10
-1.583062999999999
 20
-4.5067000000000004
 30
0.8992049999999998
 40
0.7293300000000001
 50
342.52129400000001
 51
350.63534199999992
  0
LINE
  5
11E
  8
0
 39
0.8992049999999998
 10
-0.887407
 20
-4.7257550000000004
 30
0.8992049999999998
 11
-0.9188449999999999
 21
-4.8289260000000001
 31
0.8992049999999998
  0
LINE
  5
11F
  8
0
 39
0.8992049999999998
 10
-1.1190639999999989
 20
-4.7023060000000001
 30
0.8992049999999998
 11
-1.101736
 21
-4.6454449999999987
 31
0.8992049999999998
  0
ARC
  5
120
  8
0
 10
-1.7564939999999989
 20
-4.4406879999999989
 30
0.8992049999999998
 40
0.6860270000000001
 50
342.63440600000001
 51
346.93453899999997
  0
ARC
  5
121
  8
0
 10
-1.1995409999999991
 20
-4.5665809999999993
 30
0.8992049999999998
 40
0.115079
 50
345.3042660000001
 51
359.55213700000002
  0
ARC
  5
122
  8
0
 10
-1.102206
 20
-4.5674669999999988
 30
0.8992049999999998
 40
0.017741
 50
359.95856199999997
 51
47.961936999999992
  0
ARC
  5
123
  8
0
 10
-1.1040540000000001
 20
-4.5732319999999991
 30
0.8992049999999998
 40
0.023392
 50
54.068237000000003
 51
93.890038000000004
  0
ARC
  5
124
  8
0
 10
-1.1094539999999999
 20
-4.589569
 30
0.8992049999999998
 40
0.039858
 50
84.509966000000006
 51
142.19209599999999
  0
ARC
  5
125
  8
0
 10
-1.0242489999999991
 20
-4.6362300000000003
 30
0.8992049999999998
 40
0.136647
 50
148.6488129999999
 51
161.35618500000001
  0
ARC
  5
126
  8
0
 10
-0.322311
 20
-4.8983449999999991
 30
0.8992049999999998
 40
0.8858679999999999
 50
159.80624499999999
 51
163.41233500000001
  0
LINE
  5
127
  8
0
 39
0.8992049999999998
 10
-1.1713129999999989
 20
-4.6454449999999987
 30
0.8992049999999998
 11
-1.188639999999999
 21
-4.7023060000000001
 31
0.8992049999999998
  0
LINE
  5
128
  8
0
 39
0.8992049999999998
 10
-1.188639999999999
 20
-4.7023060000000001
 30
0.8992049999999998
 11
-1.1190639999999989
 21
-4.7023060000000001
 31
0.8992049999999998
  0
LINE
  5
129
  8
0
 39
0.8992049999999998
 10
-0.4800850000000001
 20
-4.4262050000000004
 30
0.8992049999999998
 11
-0.5206
 21
-4.5282049999999998
 31
0.8992049999999998
  0
ARC
  5
12A
  8
0
 10
-0.238981
 20
-4.7382179999999989
 30
0.8992049999999998
 40
0.351304
 50
123.236429
 51
143.286866
  0
ARC
  5
12B
  8
0
 10
-0.32024
 20
-4.6169919999999989
 30
0.8992049999999998
 40
0.205377
 50
94.086399999999983
 51
122.8116519999999
  0
LINE
  5
12C
  8
0
 39
0.8992049999999998
 10
-0.334875
 20
-4.4121370000000004
 30
0.8992049999999998
 11
-0.418295
 21
-4.6858930000000001
 31
0.8992049999999998
  0
ARC
  5
12D
  8
0
 10
-0.421566
 20
-5.0286299999999997
 30
0.8992049999999998
 40
0.342753
 50
89.453117000000006
 51
99.203917000000033
  0
ARC
  5
12E
  8
0
 10
-0.451386
 20
-4.8504389999999988
 30
0.8992049999999998
 40
0.162089
 50
98.873671999999985
 51
114.9518579999999
  0
ARC
  5
12F
  8
0
 10
-0.4724930000000001
 20
-4.8069730000000002
 30
0.8992049999999998
 40
0.113779
 50
114.54853900000001
 51
151.52180299999989
  0
ARC
  5
130
  8
0
 10
-0.197056
 20
-4.9358309999999994
 30
0.8992049999999998
 40
0.4177210000000001
 50
154.00101100000001
 51
161.64816999999999
  0
ARC
  5
131
  8
0
 10
1.557539999999999
 20
-5.5520250000000004
 30
0.8992049999999998
 40
2.2773209999999988
 50
160.83251399999989
 51
163.28195500000001
  0
LINE
  5
132
  8
0
 39
0.8992049999999998
 10
-0.623522
 20
-4.8969259999999997
 30
0.8992049999999998
 11
-0.717122
 21
-5.2040969999999991
 31
0.8992049999999998
  0
LINE
  5
133
  8
0
 39
0.8992049999999998
 10
-0.717122
 20
-5.2040969999999991
 30
0.8992049999999998
 11
-0.955334
 21
-5.2040969999999991
 31
0.8992049999999998
  0
LINE
  5
134
  8
0
 39
0.8992049999999998
 10
-0.955334
 20
-5.2040969999999991
 30
0.8992049999999998
 11
-0.7182970000000001
 21
-4.4262050000000004
 31
0.8992049999999998
  0
LINE
  5
135
  8
0
 39
0.8992049999999998
 10
-0.7182970000000001
 20
-4.4262050000000004
 30
0.8992049999999998
 11
-0.4800850000000001
 21
-4.4262050000000004
 31
0.8992049999999998
  0
LINE
  5
136
  8
0
 39
0.8992049999999998
 10
0.01135
 20
-4.2550339999999993
 30
0.8992049999999998
 11
-0.026339
 21
-4.3787219999999989
 31
0.8992049999999998
  0
LINE
  5
137
  8
0
 39
0.8992049999999998
 10
-0.026339
 20
-4.3787219999999989
 30
0.8992049999999998
 11
-0.271628
 21
-4.3787219999999989
 31
0.8992049999999998
  0
LINE
  5
138
  8
0
 39
0.8992049999999998
 10
-0.271628
 20
-4.3787219999999989
 30
0.8992049999999998
 11
-0.233938
 21
-4.2550339999999993
 31
0.8992049999999998
  0
LINE
  5
139
  8
0
 39
0.8992049999999998
 10
-0.233938
 20
-4.2550339999999993
 30
0.8992049999999998
 11
0.01135
 21
-4.2550339999999993
 31
0.8992049999999998
  0
LINE
  5
13A
  8
0
 39
0.8992049999999998
 10
-0.040809
 20
-4.4262050000000004
 30
0.8992049999999998
 11
-0.126614
 21
-4.7077970000000002
 31
0.8992049999999998
  0
LINE
  5
13B
  8
0
 39
0.8992049999999998
 10
-0.162434
 20
-4.8253500000000003
 30
0.8992049999999998
 11
-0.277845
 21
-5.2040969999999991
 31
0.8992049999999998
  0
LINE
  5
13C
  8
0
 39
0.8992049999999998
 10
-0.277845
 20
-5.2040969999999991
 30
0.8992049999999998
 11
-0.523132
 21
-5.2040969999999991
 31
0.8992049999999998
  0
LINE
  5
13D
  8
0
 39
0.8992049999999998
 10
-0.523132
 20
-5.2040969999999991
 30
0.8992049999999998
 11
-0.286096
 21
-4.4262050000000004
 31
0.8992049999999998
  0
LINE
  5
13E
  8
0
 39
0.8992049999999998
 10
-0.286096
 20
-4.4262050000000004
 30
0.8992049999999998
 11
-0.040809
 21
-4.4262050000000004
 31
0.8992049999999998
  0
LINE
  5
13F
  8
0
 39
0.8992049999999998
 10
-0.0796
 20
-4.8863609999999991
 30
0.8992049999999998
 11
-0.321554
 21
-4.7081520000000001
 31
0.8992049999999998
  0
LINE
  5
140
  8
0
 39
0.8992049999999998
 10
-0.321554
 20
-4.7081520000000001
 30
0.8992049999999998
 11
-0.021559
 21
-4.707605
 31
0.8992049999999998
  0
LINE
  5
141
  8
0
 39
0.8992049999999998
 10
-0.021559
 20
-4.707605
 30
0.8992049999999998
 11
0.074136
 21
-4.420215999999999
 31
0.8992049999999998
  0
LINE
  5
142
  8
0
 39
0.8992049999999998
 10
0.074136
 20
-4.420215999999999
 30
0.8992049999999998
 11
0.174769
 21
-4.707605
 31
0.8992049999999998
  0
LINE
  5
143
  8
0
 39
0.8992049999999998
 10
0.174769
 20
-4.707605
 30
0.8992049999999998
 11
0.4702220000000001
 21
-4.7079550000000001
 31
0.8992049999999998
  0
LINE
  5
144
  8
0
 39
0.8992049999999998
 10
0.4702220000000001
 20
-4.7079550000000001
 30
0.8992049999999998
 11
0.228071
 21
-4.8861629999999989
 31
0.8992049999999998
  0
LINE
  5
145
  8
0
 39
0.8992049999999998
 10
0.228071
 20
-4.8861629999999989
 30
0.8992049999999998
 11
0.318458
 21
-5.1735079999999991
 31
0.8992049999999998
  0
LINE
  5
146
  8
0
 39
0.8992049999999998
 10
0.318458
 20
-5.1735079999999991
 30
0.8992049999999998
 11
0.074136
 21
-4.9982559999999987
 31
0.8992049999999998
  0
LINE
  5
147
  8
0
 39
0.8992049999999998
 10
0.074136
 20
-4.9982559999999987
 30
0.8992049999999998
 11
-0.170778
 21
-5.1735079999999991
 31
0.8992049999999998
  0
LINE
  5
148
  8
0
 39
0.8992049999999998
 10
-0.170778
 20
-5.1735079999999991
 30
0.8992049999999998
 11
-0.0796
 21
-4.8863609999999991
 31
0.8992049999999998
  0
LINE
  5
149
  8
0
 39
0.8992049999999998
 10
2.1620720000000002
 20
-4.5806969999999989
 30
0.8992049999999998
 11
2.1620720000000002
 21
-5.2214790000000004
 31
0.8992049999999998
  0
LINE
  5
14A
  8
0
 39
0.8992049999999998
 10
2.1620720000000002
 20
-5.2214790000000004
 30
0.8992049999999998
 11
2.531620999999999
 21
-5.2214790000000004
 31
0.8992049999999998
  0
LINE
  5
14B
  8
0
 39
0.8992049999999998
 10
2.531620999999999
 20
-5.2214790000000004
 30
0.8992049999999998
 11
2.531620999999999
 21
-4.8700659999999996
 31
0.8992049999999998
  0
LINE
  5
14C
  8
0
 39
0.8992049999999998
 10
2.531620999999999
 20
-4.8700659999999996
 30
0.8992049999999998
 11
2.547115999999999
 21
-4.8390740000000001
 31
0.8992049999999998
  0
LINE
  5
14D
  8
0
 39
0.8992049999999998
 10
2.547115999999999
 20
-4.8390740000000001
 30
0.8992049999999998
 11
2.5677779999999988
 21
-4.8235799999999998
 31
0.8992049999999998
  0
LINE
  5
14E
  8
0
 39
0.8992049999999998
 10
2.5677779999999988
 20
-4.8235799999999998
 30
0.8992049999999998
 11
2.591021
 21
-4.8158310000000002
 31
0.8992049999999998
  0
LINE
  5
14F
  8
0
 39
0.8992049999999998
 10
2.591021
 20
-4.8158310000000002
 30
0.8992049999999998
 11
2.6116820000000001
 21
-4.818414999999999
 31
0.8992049999999998
  0
LINE
  5
150
  8
0
 39
0.8992049999999998
 10
2.6116820000000001
 20
-4.818414999999999
 30
0.8992049999999998
 11
2.6349830000000001
 21
-4.8287449999999987
 31
0.8992049999999998
  0
LINE
  5
151
  8
0
 39
0.8992049999999998
 10
2.6349830000000001
 20
-4.8287449999999987
 30
0.8992049999999998
 11
2.6530619999999989
 21
-4.8468229999999997
 31
0.8992049999999998
  0
LINE
  5
152
  8
0
 39
0.8992049999999998
 10
2.6530619999999989
 20
-4.8468229999999997
 30
0.8992049999999998
 11
2.6608099999999988
 21
-4.872649
 31
0.8992049999999998
  0
LINE
  5
153
  8
0
 39
0.8992049999999998
 10
2.6608099999999988
 20
-4.872649
 30
0.8992049999999998
 11
2.6608099999999988
 21
-5.224060999999999
 31
0.8992049999999998
  0
LINE
  5
154
  8
0
 39
0.8992049999999998
 10
2.6608099999999988
 20
-5.224060999999999
 30
0.8992049999999998
 11
3.032881999999999
 21
-5.224060999999999
 31
0.8992049999999998
  0
LINE
  5
155
  8
0
 39
0.8992049999999998
 10
3.032881999999999
 20
-5.224060999999999
 30
0.8992049999999998
 11
3.032881999999999
 21
-4.8158310000000002
 31
0.8992049999999998
  0
LINE
  5
156
  8
0
 39
0.8992049999999998
 10
3.032881999999999
 20
-4.8158310000000002
 30
0.8992049999999998
 11
3.0277180000000001
 21
-4.774451
 31
0.8992049999999998
  0
LINE
  5
157
  8
0
 39
0.8992049999999998
 10
3.0277180000000001
 20
-4.774451
 30
0.8992049999999998
 11
3.0225529999999989
 21
-4.7512080000000001
 31
0.8992049999999998
  0
LINE
  5
158
  8
0
 39
0.8992049999999998
 10
3.0225529999999989
 20
-4.7512080000000001
 30
0.8992049999999998
 11
3.0148039999999998
 21
-4.7253809999999987
 31
0.8992049999999998
  0
LINE
  5
159
  8
0
 39
0.8992049999999998
 10
3.0148039999999998
 20
-4.7253809999999987
 30
0.8992049999999998
 11
3.0044729999999991
 21
-4.6969729999999998
 31
0.8992049999999998
  0
LINE
  5
15A
  8
0
 39
0.8992049999999998
 10
3.0044729999999991
 20
-4.6969729999999998
 30
0.8992049999999998
 11
2.9863960000000001
 21
-4.6607580000000004
 31
0.8992049999999998
  0
LINE
  5
15B
  8
0
 39
0.8992049999999998
 10
2.9863960000000001
 20
-4.6607580000000004
 30
0.8992049999999998
 11
2.957927999999999
 21
-4.6323480000000004
 31
0.8992049999999998
  0
LINE
  5
15C
  8
0
 39
0.8992049999999998
 10
2.957927999999999
 20
-4.6323480000000004
 30
0.8992049999999998
 11
2.932100999999999
 21
-4.6091049999999996
 31
0.8992049999999998
  0
LINE
  5
15D
  8
0
 39
0.8992049999999998
 10
2.932100999999999
 20
-4.6091049999999996
 30
0.8992049999999998
 11
2.9036930000000001
 21
-4.5936089999999989
 31
0.8992049999999998
  0
LINE
  5
15E
  8
0
 39
0.8992049999999998
 10
2.9036930000000001
 20
-4.5936089999999989
 30
0.8992049999999998
 11
2.870118999999999
 21
-4.5806969999999989
 31
0.8992049999999998
  0
LINE
  5
15F
  8
0
 39
0.8992049999999998
 10
2.870118999999999
 20
-4.5806969999999989
 30
0.8992049999999998
 11
2.836485999999999
 21
-4.5728900000000001
 31
0.8992049999999998
  0
LINE
  5
160
  8
0
 39
0.8992049999999998
 10
2.836485999999999
 20
-4.5728900000000001
 30
0.8992049999999998
 11
2.7951639999999989
 21
-4.5677240000000001
 31
0.8992049999999998
  0
LINE
  5
161
  8
0
 39
0.8992049999999998
 10
2.7951639999999989
 20
-4.5677240000000001
 30
0.8992049999999998
 11
2.7590080000000001
 21
-4.5651409999999997
 31
0.8992049999999998
  0
LINE
  5
162
  8
0
 39
0.8992049999999998
 10
2.7590080000000001
 20
-4.5651409999999997
 30
0.8992049999999998
 11
2.7279580000000001
 21
-4.5651409999999997
 31
0.8992049999999998
  0
LINE
  5
163
  8
0
 39
0.8992049999999998
 10
2.7279580000000001
 20
-4.5651409999999997
 30
0.8992049999999998
 11
2.6995480000000001
 21
-4.5703059999999986
 31
0.8992049999999998
  0
LINE
  5
164
  8
0
 39
0.8992049999999998
 10
2.6995480000000001
 20
-4.5703059999999986
 30
0.8992049999999998
 11
2.6711399999999998
 21
-4.5755309999999989
 31
0.8992049999999998
  0
LINE
  5
165
  8
0
 39
0.8992049999999998
 10
2.6711399999999998
 20
-4.5755309999999989
 30
0.8992049999999998
 11
2.6453139999999991
 21
-4.5858619999999997
 31
0.8992049999999998
  0
LINE
  5
166
  8
0
 39
0.8992049999999998
 10
2.6453139999999991
 20
-4.5858619999999997
 30
0.8992049999999998
 11
2.6220119999999989
 21
-4.5987739999999988
 31
0.8992049999999998
  0
LINE
  5
167
  8
0
 39
0.8992049999999998
 10
2.6220119999999989
 20
-4.5987739999999988
 30
0.8992049999999998
 11
2.596185999999999
 21
-4.611686999999999
 31
0.8992049999999998
  0
LINE
  5
168
  8
0
 39
0.8992049999999998
 10
2.596185999999999
 20
-4.611686999999999
 30
0.8992049999999998
 11
2.5703599999999991
 21
-4.6323480000000004
 31
0.8992049999999998
  0
LINE
  5
169
  8
0
 39
0.8992049999999998
 10
2.5703599999999991
 20
-4.6323480000000004
 30
0.8992049999999998
 11
2.5496979999999989
 21
-4.6530089999999991
 31
0.8992049999999998
  0
LINE
  5
16A
  8
0
 39
0.8992049999999998
 10
2.5496979999999989
 20
-4.6530089999999991
 30
0.8992049999999998
 11
2.5290369999999989
 21
-4.6710869999999991
 31
0.8992049999999998
  0
LINE
  5
16B
  8
0
 39
0.8992049999999998
 10
2.5290369999999989
 20
-4.6710869999999991
 30
0.8992049999999998
 11
2.5290369999999989
 21
-4.5806969999999989
 31
0.8992049999999998
  0
LINE
  5
16C
  8
0
 39
0.8992049999999998
 10
2.5290369999999989
 20
-4.5806969999999989
 30
0.8992049999999998
 11
2.1620720000000002
 21
-4.5806969999999989
 31
0.8992049999999998
  0
LINE
  5
16D
  8
0
 39
1.7136779999999989
 10
-2.754977999999999
 20
-0.225974
 30
0.713679
 11
-2.754977999999999
 21
-0.225974
 31
0.713679
  0
LINE
  5
16E
  8
0
 39
0.999999
 10
-2.2499560000000001
 20
-3.499973999999999
 30
0.999999
 11
-2.2499560000000001
 21
4.5000260000000001
 31
0.999999
  0
LINE
  5
16F
  8
0
 39
0.999999
 10
2.624994
 20
-3.499973999999999
 30
0.999999
 11
2.624994
 21
-2.8749739999999999
 31
0.999999
  0
LINE
  5
170
  8
0
 39
0.999999
 10
2.624994
 20
-2.8749739999999999
 30
0.999999
 11
2.624994
 21
-2.2499739999999999
 31
0.999999
  0
LINE
  5
171
  8
0
 39
0.999999
 10
2.624994
 20
-2.2499739999999999
 30
0.999999
 11
2.624994
 21
-1.624973999999999
 31
0.999999
  0
LINE
  5
172
  8
0
 39
0.999999
 10
2.624994
 20
-1.624973999999999
 30
0.999999
 11
2.624994
 21
4.5000260000000001
 31
0.999999
  0
LINE
  5
173
  8
0
 10
1.0
 20
4.5000260000000001
 30
0.0
 11
1.0
 21
-3.499973999999999
 31
0.0
  0
LINE
  5
174
  8
0
 10
-0.625
 20
4.5000260000000001
 30
0.0
 11
-0.625
 21
-3.499973999999999
 31
0.0
  0
LINE
  5
175
  8
0
 39
0.999999
 10
-4.0078129999999987
 20
4.281301
 30
0.999999
 11
-3.96875
 21
4.437551
 31
0.999999
  0
LINE
  5
176
  8
0
 39
0.999999
 10
-3.96875
 20
4.437551
 30
0.999999
 11
-3.9375
 21
4.437551
 31
0.999999
  0
LINE
  5
177
  8
0
 39
0.999999
 10
-3.9375
 20
4.437551
 30
0.999999
 11
-3.8984379999999992
 21
4.281301
 31
0.999999
  0
LINE
  5
178
  8
0
 39
0.999999
 10
-3.9902339999999992
 20
4.3516129999999986
 30
0.999999
 11
-3.9160159999999999
 21
4.3516129999999986
 31
0.999999
  0
LINE
  5
179
  8
0
 39
0.999999
 10
-3.7421879999999992
 20
4.4141129999999986
 30
0.999999
 11
-3.765625
 21
4.437551
 31
0.999999
  0
LINE
  5
17A
  8
0
 39
0.999999
 10
-3.765625
 20
4.437551
 30
0.999999
 11
-3.828125
 21
4.437551
 31
0.999999
  0
LINE
  5
17B
  8
0
 39
0.999999
 10
-3.828125
 20
4.437551
 30
0.999999
 11
-3.8515629999999992
 21
4.4141129999999986
 31
0.999999
  0
LINE
  5
17C
  8
0
 39
0.999999
 10
-3.8515629999999992
 20
4.4141129999999986
 30
0.999999
 11
-3.8515629999999992
 21
4.3047379999999986
 31
0.999999
  0
LINE
  5
17D
  8
0
 39
0.999999
 10
-3.8515629999999992
 20
4.3047379999999986
 30
0.999999
 11
-3.828125
 21
4.281301
 31
0.999999
  0
LINE
  5
17E
  8
0
 39
0.999999
 10
-3.828125
 20
4.281301
 30
0.999999
 11
-3.765625
 21
4.281301
 31
0.999999
  0
LINE
  5
17F
  8
0
 39
0.999999
 10
-3.765625
 20
4.281301
 30
0.999999
 11
-3.7421879999999992
 21
4.3047379999999986
 31
0.999999
  0
LINE
  5
180
  8
0
 39
0.999999
 10
-3.640625
 20
4.281301
 30
0.999999
 11
-3.640625
 21
4.437551
 31
0.999999
  0
LINE
  5
181
  8
0
 39
0.999999
 10
-3.6953129999999992
 20
4.437551
 30
0.999999
 11
-3.5859379999999992
 21
4.437551
 31
0.999999
  0
LINE
  5
182
  8
0
 39
0.999999
 10
-3.5390629999999992
 20
4.437551
 30
0.999999
 11
-3.5390629999999992
 21
4.3047379999999986
 31
0.999999
  0
LINE
  5
183
  8
0
 39
0.999999
 10
-3.5390629999999992
 20
4.3047379999999986
 30
0.999999
 11
-3.515625
 21
4.281301
 31
0.999999
  0
LINE
  5
184
  8
0
 39
0.999999
 10
-3.515625
 20
4.281301
 30
0.999999
 11
-3.453125
 21
4.281301
 31
0.999999
  0
LINE
  5
185
  8
0
 39
0.999999
 10
-3.453125
 20
4.281301
 30
0.999999
 11
-3.4296879999999992
 21
4.3047379999999986
 31
0.999999
  0
LINE
  5
186
  8
0
 39
0.999999
 10
-3.4296879999999992
 20
4.3047379999999986
 30
0.999999
 11
-3.4296879999999992
 21
4.437551
 31
0.999999
  0
LINE
  5
187
  8
0
 39
0.999999
 10
-3.3828129999999992
 20
4.281301
 30
0.999999
 11
-3.34375
 21
4.437551
 31
0.999999
  0
LINE
  5
188
  8
0
 39
0.999999
 10
-3.34375
 20
4.437551
 30
0.999999
 11
-3.3125
 21
4.437551
 31
0.999999
  0
LINE
  5
189
  8
0
 39
0.999999
 10
-3.3125
 20
4.437551
 30
0.999999
 11
-3.2734380000000001
 21
4.281301
 31
0.999999
  0
LINE
  5
18A
  8
0
 39
0.999999
 10
-3.3652339999999992
 20
4.3516129999999986
 30
0.999999
 11
-3.2910159999999999
 21
4.3516129999999986
 31
0.999999
  0
LINE
  5
18B
  8
0
 39
0.999999
 10
-3.2265630000000001
 20
4.437551
 30
0.999999
 11
-3.2265630000000001
 21
4.281301
 31
0.999999
  0
LINE
  5
18C
  8
0
 39
0.999999
 10
-3.2265630000000001
 20
4.281301
 30
0.999999
 11
-3.1171880000000001
 21
4.281301
 31
0.999999
  0
LINE
  5
18D
  8
0
 39
0.999999
 10
-2.8046880000000001
 20
4.4141129999999986
 30
0.999999
 11
-2.828125
 21
4.437551
 31
0.999999
  0
LINE
  5
18E
  8
0
 39
0.999999
 10
-2.828125
 20
4.437551
 30
0.999999
 11
-2.890625
 21
4.437551
 31
0.999999
  0
LINE
  5
18F
  8
0
 39
0.999999
 10
-2.890625
 20
4.437551
 30
0.999999
 11
-2.9140630000000001
 21
4.4141129999999986
 31
0.999999
  0
LINE
  5
190
  8
0
 39
0.999999
 10
-2.9140630000000001
 20
4.4141129999999986
 30
0.999999
 11
-2.9140630000000001
 21
4.3047379999999986
 31
0.999999
  0
LINE
  5
191
  8
0
 39
0.999999
 10
-2.9140630000000001
 20
4.3047379999999986
 30
0.999999
 11
-2.890625
 21
4.281301
 31
0.999999
  0
LINE
  5
192
  8
0
 39
0.999999
 10
-2.890625
 20
4.281301
 30
0.999999
 11
-2.828125
 21
4.281301
 31
0.999999
  0
LINE
  5
193
  8
0
 39
0.999999
 10
-2.828125
 20
4.281301
 30
0.999999
 11
-2.8046880000000001
 21
4.3047379999999986
 31
0.999999
  0
LINE
  5
194
  8
0
 39
0.999999
 10
-2.7578130000000001
 20
4.437551
 30
0.999999
 11
-2.7578130000000001
 21
4.3047379999999986
 31
0.999999
  0
LINE
  5
195
  8
0
 39
0.999999
 10
-2.7578130000000001
 20
4.3047379999999986
 30
0.999999
 11
-2.734375
 21
4.281301
 31
0.999999
  0
LINE
  5
196
  8
0
 39
0.999999
 10
-2.734375
 20
4.281301
 30
0.999999
 11
-2.671875
 21
4.281301
 31
0.999999
  0
LINE
  5
197
  8
0
 39
0.999999
 10
-2.671875
 20
4.281301
 30
0.999999
 11
-2.6484380000000001
 21
4.3047379999999986
 31
0.999999
  0
LINE
  5
198
  8
0
 39
0.999999
 10
-2.6484380000000001
 20
4.3047379999999986
 30
0.999999
 11
-2.6484380000000001
 21
4.437551
 31
0.999999
  0
LINE
  5
199
  8
0
 39
0.999999
 10
-2.546875
 20
4.281301
 30
0.999999
 11
-2.546875
 21
4.437551
 31
0.999999
  0
LINE
  5
19A
  8
0
 39
0.999999
 10
-2.6015630000000001
 20
4.437551
 30
0.999999
 11
-2.4921880000000001
 21
4.437551
 31
0.999999
  0
LINE
  5
19B
  8
0
 39
0.999999
 10
-2.1171429999999991
 20
4.281301
 30
0.999999
 11
-2.1171429999999991
 21
4.437551
 31
0.999999
  0
LINE
  5
19C
  8
0
 39
0.999999
 10
-2.1171429999999991
 20
4.437551
 30
0.999999
 11
-2.0312060000000001
 21
4.437551
 31
0.999999
  0
LINE
  5
19D
  8
0
 39
0.999999
 10
-2.0312060000000001
 20
4.437551
 30
0.999999
 11
-2.0077679999999991
 21
4.4141129999999986
 31
0.999999
  0
LINE
  5
19E
  8
0
 39
0.999999
 10
-2.0077679999999991
 20
4.4141129999999986
 30
0.999999
 11
-2.0077679999999991
 21
4.3828629999999986
 31
0.999999
  0
LINE
  5
19F
  8
0
 39
0.999999
 10
-2.0077679999999991
 20
4.3828629999999986
 30
0.999999
 11
-2.0312060000000001
 21
4.359426
 31
0.999999
  0
LINE
  5
1A0
  8
0
 39
0.999999
 10
-2.0312060000000001
 20
4.359426
 30
0.999999
 11
-2.1171429999999991
 21
4.359426
 31
0.999999
  0
LINE
  5
1A1
  8
0
 39
0.999999
 10
-1.960893
 20
4.281301
 30
0.999999
 11
-1.9218310000000001
 21
4.437551
 31
0.999999
  0
LINE
  5
1A2
  8
0
 39
0.999999
 10
-1.9218310000000001
 20
4.437551
 30
0.999999
 11
-1.8905810000000001
 21
4.437551
 31
0.999999
  0
LINE
  5
1A3
  8
0
 39
0.999999
 10
-1.8905810000000001
 20
4.437551
 30
0.999999
 11
-1.851518
 21
4.281301
 31
0.999999
  0
LINE
  5
1A4
  8
0
 39
0.999999
 10
-1.9433149999999999
 20
4.3516129999999986
 30
0.999999
 11
-1.869095999999999
 21
4.3516129999999986
 31
0.999999
  0
LINE
  5
1A5
  8
0
 39
0.999999
 10
-1.804643
 20
4.281301
 30
0.999999
 11
-1.804643
 21
4.437551
 31
0.999999
  0
LINE
  5
1A6
  8
0
 39
0.999999
 10
-1.804643
 20
4.437551
 30
0.999999
 11
-1.7187060000000001
 21
4.437551
 31
0.999999
  0
LINE
  5
1A7
  8
0
 39
0.999999
 10
-1.7187060000000001
 20
4.437551
 30
0.999999
 11
-1.6952679999999991
 21
4.4141129999999986
 31
0.999999
  0
LINE
  5
1A8
  8
0
 39
0.999999
 10
-1.6952679999999991
 20
4.4141129999999986
 30
0.999999
 11
-1.6952679999999991
 21
4.3828629999999986
 31
0.999999
  0
LINE
  5
1A9
  8
0
 39
0.999999
 10
-1.6952679999999991
 20
4.3828629999999986
 30
0.999999
 11
-1.7187060000000001
 21
4.359426
 31
0.999999
  0
LINE
  5
1AA
  8
0
 39
0.999999
 10
-1.7187060000000001
 20
4.359426
 30
0.999999
 11
-1.804643
 21
4.359426
 31
0.999999
  0
LINE
  5
1AB
  8
0
 39
0.999999
 10
-1.7421429999999991
 20
4.359426
 30
0.999999
 11
-1.6952679999999991
 21
4.281301
 31
0.999999
  0
LINE
  5
1AC
  8
0
 39
0.999999
 10
-1.593705999999999
 20
4.281301
 30
0.999999
 11
-1.593705999999999
 21
4.437551
 31
0.999999
  0
LINE
  5
1AD
  8
0
 39
0.999999
 10
-1.6483929999999991
 20
4.437551
 30
0.999999
 11
-1.5390179999999991
 21
4.437551
 31
0.999999
  0
LINE
  5
1AE
  8
0
 39
0.999999
 10
-1.3358929999999991
 20
4.281301
 30
0.999999
 11
-1.3358929999999991
 21
4.437551
 31
0.999999
  0
LINE
  5
1AF
  8
0
 39
0.999999
 10
-1.3358929999999991
 20
4.437551
 30
0.999999
 11
-1.2265179999999991
 21
4.281301
 31
0.999999
  0
LINE
  5
1B0
  8
0
 39
0.999999
 10
-1.2265179999999991
 20
4.281301
 30
0.999999
 11
-1.2265179999999991
 21
4.437551
 31
0.999999
  0
LINE
  5
1B1
  8
0
 39
0.999999
 10
-1.1796429999999991
 20
4.281301
 30
0.999999
 11
-1.140580999999999
 21
4.437551
 31
0.999999
  0
LINE
  5
1B2
  8
0
 39
0.999999
 10
-1.140580999999999
 20
4.437551
 30
0.999999
 11
-1.109330999999999
 21
4.437551
 31
0.999999
  0
LINE
  5
1B3
  8
0
 39
0.999999
 10
-1.109330999999999
 20
4.437551
 30
0.999999
 11
-1.0702679999999991
 21
4.281301
 31
0.999999
  0
LINE
  5
1B4
  8
0
 39
0.999999
 10
-1.162064999999999
 20
4.3516129999999986
 30
0.999999
 11
-1.087845999999999
 21
4.3516129999999986
 31
0.999999
  0
LINE
  5
1B5
  8
0
 39
0.999999
 10
-1.0233929999999991
 20
4.281301
 30
0.999999
 11
-1.0233929999999991
 21
4.437551
 31
0.999999
  0
LINE
  5
1B6
  8
0
 39
0.999999
 10
-1.0233929999999991
 20
4.437551
 30
0.999999
 11
-0.9687059999999998
 21
4.343801
 31
0.999999
  0
LINE
  5
1B7
  8
0
 39
0.999999
 10
-0.9687059999999998
 20
4.343801
 30
0.999999
 11
-0.914018
 21
4.437551
 31
0.999999
  0
LINE
  5
1B8
  8
0
 39
0.999999
 10
-0.914018
 20
4.437551
 30
0.999999
 11
-0.914018
 21
4.281301
 31
0.999999
  0
LINE
  5
1B9
  8
0
 39
0.999999
 10
-0.757768
 20
4.437551
 30
0.999999
 11
-0.867143
 21
4.437551
 31
0.999999
  0
LINE
  5
1BA
  8
0
 39
0.999999
 10
-0.867143
 20
4.437551
 30
0.999999
 11
-0.867143
 21
4.281301
 31
0.999999
  0
LINE
  5
1BB
  8
0
 39
0.999999
 10
-0.867143
 20
4.281301
 30
0.999999
 11
-0.757768
 21
4.281301
 31
0.999999
  0
LINE
  5
1BC
  8
0
 39
0.999999
 10
-0.867143
 20
4.359426
 30
0.999999
 11
-0.7968310000000001
 21
4.359426
 31
0.999999
  0
LINE
  5
1BD
  8
0
 10
-0.429675
 20
4.2812640000000002
 30
0.0
 11
-0.429675
 21
4.4375140000000002
 31
0.0
  0
LINE
  5
1BE
  8
0
 10
-0.429675
 20
4.4375140000000002
 30
0.0
 11
-0.343737
 21
4.4375140000000002
 31
0.0
  0
LINE
  5
1BF
  8
0
 10
-0.343737
 20
4.4375140000000002
 30
0.0
 11
-0.3203
 21
4.4140759999999997
 31
0.0
  0
LINE
  5
1C0
  8
0
 10
-0.3203
 20
4.4140759999999997
 30
0.0
 11
-0.3203
 21
4.3047009999999997
 31
0.0
  0
LINE
  5
1C1
  8
0
 10
-0.3203
 20
4.3047009999999997
 30
0.0
 11
-0.343737
 21
4.2812640000000002
 31
0.0
  0
LINE
  5
1C2
  8
0
 10
-0.343737
 20
4.2812640000000002
 30
0.0
 11
-0.429675
 21
4.2812640000000002
 31
0.0
  0
LINE
  5
1C3
  8
0
 10
-0.234362
 20
4.2812640000000002
 30
0.0
 11
-0.265612
 21
4.2812640000000002
 31
0.0
  0
LINE
  5
1C4
  8
0
 10
-0.249987
 20
4.2812640000000002
 30
0.0
 11
-0.249987
 21
4.4375140000000002
 31
0.0
  0
LINE
  5
1C5
  8
0
 10
-0.234362
 20
4.4375140000000002
 30
0.0
 11
-0.265612
 21
4.4375140000000002
 31
0.0
  0
LINE
  5
1C6
  8
0
 10
-0.179675
 20
4.2812640000000002
 30
0.0
 11
-0.179675
 21
4.4375140000000002
 31
0.0
  0
LINE
  5
1C7
  8
0
 10
-0.179675
 20
4.4375140000000002
 30
0.0
 11
-0.124987
 21
4.3437640000000002
 31
0.0
  0
LINE
  5
1C8
  8
0
 10
-0.124987
 20
4.3437640000000002
 30
0.0
 11
-0.0703
 21
4.4375140000000002
 31
0.0
  0
LINE
  5
1C9
  8
0
 10
-0.0703
 20
4.4375140000000002
 30
0.0
 11
-0.0703
 21
4.2812640000000002
 31
0.0
  0
LINE
  5
1CA
  8
0
 10
0.08595
 20
4.4375140000000002
 30
0.0
 11
-0.023425
 21
4.4375140000000002
 31
0.0
  0
LINE
  5
1CB
  8
0
 10
-0.023425
 20
4.4375140000000002
 30
0.0
 11
-0.023425
 21
4.2812640000000002
 31
0.0
  0
LINE
  5
1CC
  8
0
 10
-0.023425
 20
4.2812640000000002
 30
0.0
 11
0.08595
 21
4.2812640000000002
 31
0.0
  0
LINE
  5
1CD
  8
0
 10
-0.023425
 20
4.3593890000000002
 30
0.0
 11
0.046888
 21
4.3593890000000002
 31
0.0
  0
LINE
  5
1CE
  8
0
 10
0.132825
 20
4.2812640000000002
 30
0.0
 11
0.132825
 21
4.4375140000000002
 31
0.0
  0
LINE
  5
1CF
  8
0
 10
0.132825
 20
4.4375140000000002
 30
0.0
 11
0.2422
 21
4.2812640000000002
 31
0.0
  0
LINE
  5
1D0
  8
0
 10
0.2422
 20
4.2812640000000002
 30
0.0
 11
0.2422
 21
4.4375140000000002
 31
0.0
  0
LINE
  5
1D1
  8
0
 10
0.39845
 20
4.4140759999999997
 30
0.0
 11
0.375013
 21
4.4375140000000002
 31
0.0
  0
LINE
  5
1D2
  8
0
 10
0.375013
 20
4.4375140000000002
 30
0.0
 11
0.312513
 21
4.4375140000000002
 31
0.0
  0
LINE
  5
1D3
  8
0
 10
0.312513
 20
4.4375140000000002
 30
0.0
 11
0.289075
 21
4.4140759999999997
 31
0.0
  0
LINE
  5
1D4
  8
0
 10
0.289075
 20
4.4140759999999997
 30
0.0
 11
0.289075
 21
4.3828259999999997
 31
0.0
  0
LINE
  5
1D5
  8
0
 10
0.289075
 20
4.3828259999999997
 30
0.0
 11
0.312513
 21
4.3593890000000002
 31
0.0
  0
LINE
  5
1D6
  8
0
 10
0.312513
 20
4.3593890000000002
 30
0.0
 11
0.375013
 21
4.3593890000000002
 31
0.0
  0
LINE
  5
1D7
  8
0
 10
0.375013
 20
4.3593890000000002
 30
0.0
 11
0.39845
 21
4.3359509999999997
 31
0.0
  0
LINE
  5
1D8
  8
0
 10
0.39845
 20
4.3359509999999997
 30
0.0
 11
0.39845
 21
4.3047009999999997
 31
0.0
  0
LINE
  5
1D9
  8
0
 10
0.39845
 20
4.3047009999999997
 30
0.0
 11
0.375013
 21
4.2812640000000002
 31
0.0
  0
LINE
  5
1DA
  8
0
 10
0.375013
 20
4.2812640000000002
 30
0.0
 11
0.312513
 21
4.2812640000000002
 31
0.0
  0
LINE
  5
1DB
  8
0
 10
0.312513
 20
4.2812640000000002
 30
0.0
 11
0.289075
 21
4.3047009999999997
 31
0.0
  0
LINE
  5
1DC
  8
0
 10
0.484388
 20
4.2812640000000002
 30
0.0
 11
0.453138
 21
4.2812640000000002
 31
0.0
  0
LINE
  5
1DD
  8
0
 10
0.468763
 20
4.2812640000000002
 30
0.0
 11
0.468763
 21
4.4375140000000002
 31
0.0
  0
LINE
  5
1DE
  8
0
 10
0.484388
 20
4.4375140000000002
 30
0.0
 11
0.453138
 21
4.4375140000000002
 31
0.0
  0
LINE
  5
1DF
  8
0
 10
0.5625130000000002
 20
4.4375140000000002
 30
0.0
 11
0.539075
 21
4.4140759999999997
 31
0.0
  0
LINE
  5
1E0
  8
0
 10
0.539075
 20
4.4140759999999997
 30
0.0
 11
0.539075
 21
4.3047009999999997
 31
0.0
  0
LINE
  5
1E1
  8
0
 10
0.539075
 20
4.3047009999999997
 30
0.0
 11
0.5625130000000002
 21
4.2812640000000002
 31
0.0
  0
LINE
  5
1E2
  8
0
 10
0.5625130000000002
 20
4.2812640000000002
 30
0.0
 11
0.6250130000000002
 21
4.2812640000000002
 31
0.0
  0
LINE
  5
1E3
  8
0
 10
0.6250130000000002
 20
4.2812640000000002
 30
0.0
 11
0.64845
 21
4.3047009999999997
 31
0.0
  0
LINE
  5
1E4
  8
0
 10
0.64845
 20
4.3047009999999997
 30
0.0
 11
0.64845
 21
4.4140759999999997
 31
0.0
  0
LINE
  5
1E5
  8
0
 10
0.64845
 20
4.4140759999999997
 30
0.0
 11
0.6250130000000002
 21
4.4375140000000002
 31
0.0
  0
LINE
  5
1E6
  8
0
 10
0.6250130000000002
 20
4.4375140000000002
 30
0.0
 11
0.5625130000000002
 21
4.4375140000000002
 31
0.0
  0
LINE
  5
1E7
  8
0
 10
0.695325
 20
4.2812640000000002
 30
0.0
 11
0.695325
 21
4.4375140000000002
 31
0.0
  0
LINE
  5
1E8
  8
0
 10
0.695325
 20
4.4375140000000002
 30
0.0
 11
0.8047
 21
4.2812640000000002
 31
0.0
  0
LINE
  5
1E9
  8
0
 10
0.8047
 20
4.2812640000000002
 30
0.0
 11
0.8047
 21
4.4375140000000002
 31
0.0
  0
LINE
  5
1EA
  8
0
 10
0.132858
 20
4.062498999999999
 30
0.0
 11
0.17192
 21
4.218748999999999
 31
0.0
  0
LINE
  5
1EB
  8
0
 10
0.17192
 20
4.218748999999999
 30
0.0
 11
0.20317
 21
4.218748999999999
 31
0.0
  0
LINE
  5
1EC
  8
0
 10
0.20317
 20
4.218748999999999
 30
0.0
 11
0.242233
 21
4.062498999999999
 31
0.0
  0
LINE
  5
1ED
  8
0
 10
0.150436
 20
4.1328110000000002
 30
0.0
 11
0.224655
 21
4.1328110000000002
 31
0.0
  0
LINE
  5
1EE
  8
0
 39
0.999999
 10
1.195312999999999
 20
4.281301
 30
0.999999
 11
1.195312999999999
 21
4.437551
 31
0.999999
  0
LINE
  5
1EF
  8
0
 39
0.999999
 10
1.195312999999999
 20
4.437551
 30
0.999999
 11
1.28125
 21
4.437551
 31
0.999999
  0
LINE
  5
1F0
  8
0
 39
0.999999
 10
1.28125
 20
4.437551
 30
0.999999
 11
1.304687999999999
 21
4.4141129999999986
 31
0.999999
  0
LINE
  5
1F1
  8
0
 39
0.999999
 10
1.304687999999999
 20
4.4141129999999986
 30
0.999999
 11
1.304687999999999
 21
4.3047379999999986
 31
0.999999
  0
LINE
  5
1F2
  8
0
 39
0.999999
 10
1.304687999999999
 20
4.3047379999999986
 30
0.999999
 11
1.28125
 21
4.281301
 31
0.999999
  0
LINE
  5
1F3
  8
0
 39
0.999999
 10
1.28125
 20
4.281301
 30
0.999999
 11
1.195312999999999
 21
4.281301
 31
0.999999
  0
LINE
  5
1F4
  8
0
 39
0.999999
 10
1.390625
 20
4.281301
 30
0.999999
 11
1.359375
 21
4.281301
 31
0.999999
  0
LINE
  5
1F5
  8
0
 39
0.999999
 10
1.375
 20
4.281301
 30
0.999999
 11
1.375
 21
4.437551
 31
0.999999
  0
LINE
  5
1F6
  8
0
 39
0.999999
 10
1.390625
 20
4.437551
 30
0.999999
 11
1.359375
 21
4.437551
 31
0.999999
  0
LINE
  5
1F7
  8
0
 39
0.999999
 10
1.445312999999999
 20
4.281301
 30
0.999999
 11
1.445312999999999
 21
4.437551
 31
0.999999
  0
LINE
  5
1F8
  8
0
 39
0.999999
 10
1.445312999999999
 20
4.437551
 30
0.999999
 11
1.5
 21
4.343801
 31
0.999999
  0
LINE
  5
1F9
  8
0
 39
0.999999
 10
1.5
 20
4.343801
 30
0.999999
 11
1.554687999999999
 21
4.437551
 31
0.999999
  0
LINE
  5
1FA
  8
0
 39
0.999999
 10
1.554687999999999
 20
4.437551
 30
0.999999
 11
1.554687999999999
 21
4.281301
 31
0.999999
  0
LINE
  5
1FB
  8
0
 39
0.999999
 10
1.7109380000000001
 20
4.437551
 30
0.999999
 11
1.601562999999999
 21
4.437551
 31
0.999999
  0
LINE
  5
1FC
  8
0
 39
0.999999
 10
1.601562999999999
 20
4.437551
 30
0.999999
 11
1.601562999999999
 21
4.281301
 31
0.999999
  0
LINE
  5
1FD
  8
0
 39
0.999999
 10
1.601562999999999
 20
4.281301
 30
0.999999
 11
1.7109380000000001
 21
4.281301
 31
0.999999
  0
LINE
  5
1FE
  8
0
 39
0.999999
 10
1.601562999999999
 20
4.359426
 30
0.999999
 11
1.671875
 21
4.359426
 31
0.999999
  0
LINE
  5
1FF
  8
0
 39
0.999999
 10
1.7578130000000001
 20
4.281301
 30
0.999999
 11
1.7578130000000001
 21
4.437551
 31
0.999999
  0
LINE
  5
200
  8
0
 39
0.999999
 10
1.7578130000000001
 20
4.437551
 30
0.999999
 11
1.8671880000000001
 21
4.281301
 31
0.999999
  0
LINE
  5
201
  8
0
 39
0.999999
 10
1.8671880000000001
 20
4.281301
 30
0.999999
 11
1.8671880000000001
 21
4.437551
 31
0.999999
  0
LINE
  5
202
  8
0
 39
0.999999
 10
2.0234380000000001
 20
4.4141129999999986
 30
0.999999
 11
2.0
 21
4.437551
 31
0.999999
  0
LINE
  5
203
  8
0
 39
0.999999
 10
2.0
 20
4.437551
 30
0.999999
 11
1.9375
 21
4.437551
 31
0.999999
  0
LINE
  5
204
  8
0
 39
0.999999
 10
1.9375
 20
4.437551
 30
0.999999
 11
1.9140630000000001
 21
4.4141129999999986
 31
0.999999
  0
LINE
  5
205
  8
0
 39
0.999999
 10
1.9140630000000001
 20
4.4141129999999986
 30
0.999999
 11
1.9140630000000001
 21
4.3828629999999986
 31
0.999999
  0
LINE
  5
206
  8
0
 39
0.999999
 10
1.9140630000000001
 20
4.3828629999999986
 30
0.999999
 11
1.9375
 21
4.359426
 31
0.999999
  0
LINE
  5
207
  8
0
 39
0.999999
 10
1.9375
 20
4.359426
 30
0.999999
 11
2.0
 21
4.359426
 31
0.999999
  0
LINE
  5
208
  8
0
 39
0.999999
 10
2.0
 20
4.359426
 30
0.999999
 11
2.0234380000000001
 21
4.3359879999999986
 31
0.999999
  0
LINE
  5
209
  8
0
 39
0.999999
 10
2.0234380000000001
 20
4.3359879999999986
 30
0.999999
 11
2.0234380000000001
 21
4.3047379999999986
 31
0.999999
  0
LINE
  5
20A
  8
0
 39
0.999999
 10
2.0234380000000001
 20
4.3047379999999986
 30
0.999999
 11
2.0
 21
4.281301
 31
0.999999
  0
LINE
  5
20B
  8
0
 39
0.999999
 10
2.0
 20
4.281301
 30
0.999999
 11
1.9375
 21
4.281301
 31
0.999999
  0
LINE
  5
20C
  8
0
 39
0.999999
 10
1.9375
 20
4.281301
 30
0.999999
 11
1.9140630000000001
 21
4.3047379999999986
 31
0.999999
  0
LINE
  5
20D
  8
0
 39
0.999999
 10
2.109375
 20
4.281301
 30
0.999999
 11
2.078125
 21
4.281301
 31
0.999999
  0
LINE
  5
20E
  8
0
 39
0.999999
 10
2.09375
 20
4.281301
 30
0.999999
 11
2.09375
 21
4.437551
 31
0.999999
  0
LINE
  5
20F
  8
0
 39
0.999999
 10
2.109375
 20
4.437551
 30
0.999999
 11
2.078125
 21
4.437551
 31
0.999999
  0
LINE
  5
210
  8
0
 39
0.999999
 10
2.1875
 20
4.437551
 30
0.999999
 11
2.1640630000000001
 21
4.4141129999999986
 31
0.999999
  0
LINE
  5
211
  8
0
 39
0.999999
 10
2.1640630000000001
 20
4.4141129999999986
 30
0.999999
 11
2.1640630000000001
 21
4.3047379999999986
 31
0.999999
  0
LINE
  5
212
  8
0
 39
0.999999
 10
2.1640630000000001
 20
4.3047379999999986
 30
0.999999
 11
2.1875
 21
4.281301
 31
0.999999
  0
LINE
  5
213
  8
0
 39
0.999999
 10
2.1875
 20
4.281301
 30
0.999999
 11
2.25
 21
4.281301
 31
0.999999
  0
LINE
  5
214
  8
0
 39
0.999999
 10
2.25
 20
4.281301
 30
0.999999
 11
2.2734380000000001
 21
4.3047379999999986
 31
0.999999
  0
LINE
  5
215
  8
0
 39
0.999999
 10
2.2734380000000001
 20
4.3047379999999986
 30
0.999999
 11
2.2734380000000001
 21
4.4141129999999986
 31
0.999999
  0
LINE
  5
216
  8
0
 39
0.999999
 10
2.2734380000000001
 20
4.4141129999999986
 30
0.999999
 11
2.25
 21
4.437551
 31
0.999999
  0
LINE
  5
217
  8
0
 39
0.999999
 10
2.25
 20
4.437551
 30
0.999999
 11
2.1875
 21
4.437551
 31
0.999999
  0
LINE
  5
218
  8
0
 39
0.999999
 10
2.3203130000000001
 20
4.281301
 30
0.999999
 11
2.3203130000000001
 21
4.437551
 31
0.999999
  0
LINE
  5
219
  8
0
 39
0.999999
 10
2.3203130000000001
 20
4.437551
 30
0.999999
 11
2.4296880000000001
 21
4.281301
 31
0.999999
  0
LINE
  5
21A
  8
0
 39
0.999999
 10
2.4296880000000001
 20
4.281301
 30
0.999999
 11
2.4296880000000001
 21
4.437551
 31
0.999999
  0
LINE
  5
21B
  8
0
 39
0.999999
 10
1.758438999999999
 20
4.0608899999999997
 30
0.999999
 11
1.758438999999999
 21
4.2171399999999997
 31
0.999999
  0
LINE
  5
21C
  8
0
 39
0.999999
 10
1.758438999999999
 20
4.2171399999999997
 30
0.999999
 11
1.844376999999999
 21
4.2171399999999997
 31
0.999999
  0
LINE
  5
21D
  8
0
 39
0.999999
 10
1.844376999999999
 20
4.2171399999999997
 30
0.999999
 11
1.867813999999999
 21
4.1937030000000002
 31
0.999999
  0
LINE
  5
21E
  8
0
 39
0.999999
 10
1.867813999999999
 20
4.1937030000000002
 30
0.999999
 11
1.867813999999999
 21
4.1624530000000002
 31
0.999999
  0
LINE
  5
21F
  8
0
 39
0.999999
 10
1.867813999999999
 20
4.1624530000000002
 30
0.999999
 11
1.844376999999999
 21
4.1390149999999997
 31
0.999999
  0
LINE
  5
220
  8
0
 39
0.999999
 10
1.844376999999999
 20
4.1390149999999997
 30
0.999999
 11
1.867813999999999
 21
4.1155780000000002
 31
0.999999
  0
LINE
  5
221
  8
0
 39
0.999999
 10
1.867813999999999
 20
4.1155780000000002
 30
0.999999
 11
1.867813999999999
 21
4.0843280000000002
 31
0.999999
  0
LINE
  5
222
  8
0
 39
0.999999
 10
1.867813999999999
 20
4.0843280000000002
 30
0.999999
 11
1.844376999999999
 21
4.0608899999999997
 31
0.999999
  0
LINE
  5
223
  8
0
 39
0.999999
 10
1.844376999999999
 20
4.0608899999999997
 30
0.999999
 11
1.758438999999999
 21
4.0608899999999997
 31
0.999999
  0
LINE
  5
224
  8
0
 39
0.999999
 10
1.844376999999999
 20
4.1390149999999997
 30
0.999999
 11
1.758438999999999
 21
4.1390149999999997
 31
0.999999
  0
LINE
  5
225
  8
0
 39
0.999999
 10
2.8203070000000001
 20
4.281301
 30
0.999999
 11
2.8203070000000001
 21
4.437551
 31
0.999999
  0
LINE
  5
226
  8
0
 39
0.999999
 10
2.8203070000000001
 20
4.437551
 30
0.999999
 11
2.906244
 21
4.437551
 31
0.999999
  0
LINE
  5
227
  8
0
 39
0.999999
 10
2.906244
 20
4.437551
 30
0.999999
 11
2.9296820000000001
 21
4.4141129999999986
 31
0.999999
  0
LINE
  5
228
  8
0
 39
0.999999
 10
2.9296820000000001
 20
4.4141129999999986
 30
0.999999
 11
2.9296820000000001
 21
4.3047379999999986
 31
0.999999
  0
LINE
  5
229
  8
0
 39
0.999999
 10
2.9296820000000001
 20
4.3047379999999986
 30
0.999999
 11
2.906244
 21
4.281301
 31
0.999999
  0
LINE
  5
22A
  8
0
 39
0.999999
 10
2.906244
 20
4.281301
 30
0.999999
 11
2.8203070000000001
 21
4.281301
 31
0.999999
  0
LINE
  5
22B
  8
0
 39
0.999999
 10
3.015619
 20
4.281301
 30
0.999999
 11
2.984369
 21
4.281301
 31
0.999999
  0
LINE
  5
22C
  8
0
 39
0.999999
 10
2.999994
 20
4.281301
 30
0.999999
 11
2.999994
 21
4.437551
 31
0.999999
  0
LINE
  5
22D
  8
0
 39
0.999999
 10
3.015619
 20
4.437551
 30
0.999999
 11
2.984369
 21
4.437551
 31
0.999999
  0
LINE
  5
22E
  8
0
 39
0.999999
 10
3.0703070000000001
 20
4.281301
 30
0.999999
 11
3.0703070000000001
 21
4.437551
 31
0.999999
  0
LINE
  5
22F
  8
0
 39
0.999999
 10
3.0703070000000001
 20
4.437551
 30
0.999999
 11
3.124994
 21
4.343801
 31
0.999999
  0
LINE
  5
230
  8
0
 39
0.999999
 10
3.124994
 20
4.343801
 30
0.999999
 11
3.1796820000000001
 21
4.437551
 31
0.999999
  0
LINE
  5
231
  8
0
 39
0.999999
 10
3.1796820000000001
 20
4.437551
 30
0.999999
 11
3.1796820000000001
 21
4.281301
 31
0.999999
  0
LINE
  5
232
  8
0
 39
0.999999
 10
3.3359320000000001
 20
4.437551
 30
0.999999
 11
3.2265570000000001
 21
4.437551
 31
0.999999
  0
LINE
  5
233
  8
0
 39
0.999999
 10
3.2265570000000001
 20
4.437551
 30
0.999999
 11
3.2265570000000001
 21
4.281301
 31
0.999999
  0
LINE
  5
234
  8
0
 39
0.999999
 10
3.2265570000000001
 20
4.281301
 30
0.999999
 11
3.3359320000000001
 21
4.281301
 31
0.999999
  0
LINE
  5
235
  8
0
 39
0.999999
 10
3.2265570000000001
 20
4.359426
 30
0.999999
 11
3.296869
 21
4.359426
 31
0.999999
  0
LINE
  5
236
  8
0
 39
0.999999
 10
3.3828070000000001
 20
4.281301
 30
0.999999
 11
3.3828070000000001
 21
4.437551
 31
0.999999
  0
LINE
  5
237
  8
0
 39
0.999999
 10
3.3828070000000001
 20
4.437551
 30
0.999999
 11
3.4921820000000001
 21
4.281301
 31
0.999999
  0
LINE
  5
238
  8
0
 39
0.999999
 10
3.4921820000000001
 20
4.281301
 30
0.999999
 11
3.4921820000000001
 21
4.437551
 31
0.999999
  0
LINE
  5
239
  8
0
 39
0.999999
 10
3.6484320000000001
 20
4.4141129999999986
 30
0.999999
 11
3.624994
 21
4.437551
 31
0.999999
  0
LINE
  5
23A
  8
0
 39
0.999999
 10
3.624994
 20
4.437551
 30
0.999999
 11
3.562494
 21
4.437551
 31
0.999999
  0
LINE
  5
23B
  8
0
 39
0.999999
 10
3.562494
 20
4.437551
 30
0.999999
 11
3.5390570000000001
 21
4.4141129999999986
 31
0.999999
  0
LINE
  5
23C
  8
0
 39
0.999999
 10
3.5390570000000001
 20
4.4141129999999986
 30
0.999999
 11
3.5390570000000001
 21
4.3828629999999986
 31
0.999999
  0
LINE
  5
23D
  8
0
 39
0.999999
 10
3.5390570000000001
 20
4.3828629999999986
 30
0.999999
 11
3.562494
 21
4.359426
 31
0.999999
  0
LINE
  5
23E
  8
0
 39
0.999999
 10
3.562494
 20
4.359426
 30
0.999999
 11
3.624994
 21
4.359426
 31
0.999999
  0
LINE
  5
23F
  8
0
 39
0.999999
 10
3.624994
 20
4.359426
 30
0.999999
 11
3.6484320000000001
 21
4.3359879999999986
 31
0.999999
  0
LINE
  5
240
  8
0
 39
0.999999
 10
3.6484320000000001
 20
4.3359879999999986
 30
0.999999
 11
3.6484320000000001
 21
4.3047379999999986
 31
0.999999
  0
LINE
  5
241
  8
0
 39
0.999999
 10
3.6484320000000001
 20
4.3047379999999986
 30
0.999999
 11
3.624994
 21
4.281301
 31
0.999999
  0
LINE
  5
242
  8
0
 39
0.999999
 10
3.624994
 20
4.281301
 30
0.999999
 11
3.562494
 21
4.281301
 31
0.999999
  0
LINE
  5
243
  8
0
 39
0.999999
 10
3.562494
 20
4.281301
 30
0.999999
 11
3.5390570000000001
 21
4.3047379999999986
 31
0.999999
  0
LINE
  5
244
  8
0
 39
0.999999
 10
3.734369
 20
4.281301
 30
0.999999
 11
3.703119
 21
4.281301
 31
0.999999
  0
LINE
  5
245
  8
0
 39
0.999999
 10
3.718744
 20
4.281301
 30
0.999999
 11
3.718744
 21
4.437551
 31
0.999999
  0
LINE
  5
246
  8
0
 39
0.999999
 10
3.734369
 20
4.437551
 30
0.999999
 11
3.703119
 21
4.437551
 31
0.999999
  0
LINE
  5
247
  8
0
 39
0.999999
 10
3.812494
 20
4.437551
 30
0.999999
 11
3.7890570000000001
 21
4.4141129999999986
 31
0.999999
  0
LINE
  5
248
  8
0
 39
0.999999
 10
3.7890570000000001
 20
4.4141129999999986
 30
0.999999
 11
3.7890570000000001
 21
4.3047379999999986
 31
0.999999
  0
LINE
  5
249
  8
0
 39
0.999999
 10
3.7890570000000001
 20
4.3047379999999986
 30
0.999999
 11
3.812494
 21
4.281301
 31
0.999999
  0
LINE
  5
24A
  8
0
 39
0.999999
 10
3.812494
 20
4.281301
 30
0.999999
 11
3.874994
 21
4.281301
 31
0.999999
  0
LINE
  5
24B
  8
0
 39
0.999999
 10
3.874994
 20
4.281301
 30
0.999999
 11
3.8984320000000001
 21
4.3047379999999986
 31
0.999999
  0
LINE
  5
24C
  8
0
 39
0.999999
 10
3.8984320000000001
 20
4.3047379999999986
 30
0.999999
 11
3.8984320000000001
 21
4.4141129999999986
 31
0.999999
  0
LINE
  5
24D
  8
0
 39
0.999999
 10
3.8984320000000001
 20
4.4141129999999986
 30
0.999999
 11
3.874994
 21
4.437551
 31
0.999999
  0
LINE
  5
24E
  8
0
 39
0.999999
 10
3.874994
 20
4.437551
 30
0.999999
 11
3.812494
 21
4.437551
 31
0.999999
  0
LINE
  5
24F
  8
0
 39
0.999999
 10
3.9453070000000001
 20
4.281301
 30
0.999999
 11
3.9453070000000001
 21
4.437551
 31
0.999999
  0
LINE
  5
250
  8
0
 39
0.999999
 10
3.9453070000000001
 20
4.437551
 30
0.999999
 11
4.0546819999999988
 21
4.281301
 31
0.999999
  0
LINE
  5
251
  8
0
 39
0.999999
 10
4.0546819999999988
 20
4.281301
 30
0.999999
 11
4.0546819999999988
 21
4.437551
 31
0.999999
  0
LINE
  5
252
  8
0
 39
0.999999
 10
3.4942660000000001
 20
4.1953069999999988
 30
0.999999
 11
3.4708290000000002
 21
4.218744
 31
0.999999
  0
LINE
  5
253
  8
0
 39
0.999999
 10
3.4708290000000002
 20
4.218744
 30
0.999999
 11
3.4083290000000002
 21
4.218744
 31
0.999999
  0
LINE
  5
254
  8
0
 39
0.999999
 10
3.4083290000000002
 20
4.218744
 30
0.999999
 11
3.3848910000000001
 21
4.1953069999999988
 31
0.999999
  0
LINE
  5
255
  8
0
 39
0.999999
 10
3.3848910000000001
 20
4.1953069999999988
 30
0.999999
 11
3.3848910000000001
 21
4.0859319999999988
 31
0.999999
  0
LINE
  5
256
  8
0
 39
0.999999
 10
3.3848910000000001
 20
4.0859319999999988
 30
0.999999
 11
3.4083290000000002
 21
4.062494
 31
0.999999
  0
LINE
  5
257
  8
0
 39
0.999999
 10
3.4083290000000002
 20
4.062494
 30
0.999999
 11
3.4708290000000002
 21
4.062494
 31
0.999999
  0
LINE
  5
258
  8
0
 39
0.999999
 10
3.4708290000000002
 20
4.062494
 30
0.999999
 11
3.4942660000000001
 21
4.0859319999999988
 31
0.999999
  0
LINE
  5
259
  8
0
 10
-1.636719
 20
3.7656510000000001
 30
0.0
 11
-1.5507809999999991
 21
3.7656510000000001
 31
0.0
  0
LINE
  5
25A
  8
0
 10
-1.5507809999999991
 20
3.7656510000000001
 30
0.0
 11
-1.527344
 21
3.7422129999999991
 31
0.0
  0
LINE
  5
25B
  8
0
 10
-1.527344
 20
3.7422129999999991
 30
0.0
 11
-1.527344
 21
3.7109629999999991
 31
0.0
  0
LINE
  5
25C
  8
0
 10
-1.527344
 20
3.7109629999999991
 30
0.0
 11
-1.5507809999999991
 21
3.6875260000000001
 31
0.0
  0
LINE
  5
25D
  8
0
 10
-1.5507809999999991
 20
3.6875260000000001
 30
0.0
 11
-1.636719
 21
3.6875260000000001
 31
0.0
  0
LINE
  5
25E
  8
0
 10
-1.371094
 20
3.7422129999999991
 30
0.0
 11
-1.3945309999999991
 21
3.7656510000000001
 31
0.0
  0
LINE
  5
25F
  8
0
 10
-1.3945309999999991
 20
3.7656510000000001
 30
0.0
 11
-1.4570309999999991
 21
3.7656510000000001
 31
0.0
  0
LINE
  5
260
  8
0
 10
-1.4570309999999991
 20
3.7656510000000001
 30
0.0
 11
-1.480469
 21
3.7422129999999991
 31
0.0
  0
LINE
  5
261
  8
0
 10
-1.480469
 20
3.7422129999999991
 30
0.0
 11
-1.480469
 21
3.6328379999999991
 31
0.0
  0
LINE
  5
262
  8
0
 10
-1.480469
 20
3.6328379999999991
 30
0.0
 11
-1.4570309999999991
 21
3.6094010000000001
 31
0.0
  0
LINE
  5
263
  8
0
 10
-1.4570309999999991
 20
3.6094010000000001
 30
0.0
 11
-1.3945309999999991
 21
3.6094010000000001
 31
0.0
  0
LINE
  5
264
  8
0
 10
-1.3945309999999991
 20
3.6094010000000001
 30
0.0
 11
-1.371094
 21
3.6328379999999991
 31
0.0
  0
LINE
  5
265
  8
0
 10
-1.3320309999999991
 20
3.7500260000000001
 30
0.0
 11
-1.3164059999999991
 21
3.7656510000000001
 31
0.0
  0
LINE
  5
266
  8
0
 10
-1.3164059999999991
 20
3.7656510000000001
 30
0.0
 11
-1.3164059999999991
 21
3.6094010000000001
 31
0.0
  0
LINE
  5
267
  8
0
 10
-1.3320309999999991
 20
3.6094010000000001
 30
0.0
 11
-1.3007809999999991
 21
3.6094010000000001
 31
0.0
  0
LINE
  5
268
  8
0
 10
-1.2695309999999991
 20
3.7500260000000001
 30
0.0
 11
-1.2539059999999991
 21
3.7656510000000001
 31
0.0
  0
LINE
  5
269
  8
0
 10
-1.2539059999999991
 20
3.7656510000000001
 30
0.0
 11
-1.2539059999999991
 21
3.6094010000000001
 31
0.0
  0
LINE
  5
26A
  8
0
 10
-1.2695309999999991
 20
3.6094010000000001
 30
0.0
 11
-1.2382809999999991
 21
3.6094010000000001
 31
0.0
  0
LINE
  5
26B
  8
0
 39
0.999999
 10
-0.071336
 20
3.6100159999999999
 30
0.999999
 11
-0.071336
 21
3.6178279999999989
 31
0.999999
  0
LINE
  5
26C
  8
0
 39
0.999999
 10
-0.024461
 20
3.7506409999999999
 30
0.999999
 11
-0.024461
 21
3.7662659999999999
 31
0.999999
  0
LINE
  5
26D
  8
0
 39
0.999999
 10
-0.024461
 20
3.7662659999999999
 30
0.999999
 11
0.084914
 21
3.7662659999999999
 31
0.999999
  0
LINE
  5
26E
  8
0
 39
0.999999
 10
0.084914
 20
3.7662659999999999
 30
0.999999
 11
0.084914
 21
3.7506409999999999
 31
0.999999
  0
LINE
  5
26F
  8
0
 39
0.999999
 10
0.084914
 20
3.7506409999999999
 30
0.999999
 11
0.030227
 21
3.6100159999999999
 31
0.999999
  0
LINE
  5
270
  8
0
 39
0.999999
 10
0.131789
 20
3.6334529999999989
 30
0.999999
 11
0.155227
 21
3.6100159999999999
 31
0.999999
  0
LINE
  5
271
  8
0
 39
0.999999
 10
0.155227
 20
3.6100159999999999
 30
0.999999
 11
0.217727
 21
3.6100159999999999
 31
0.999999
  0
LINE
  5
272
  8
0
 39
0.999999
 10
0.217727
 20
3.6100159999999999
 30
0.999999
 11
0.241164
 21
3.6334529999999989
 31
0.999999
  0
LINE
  5
273
  8
0
 39
0.999999
 10
0.241164
 20
3.6334529999999989
 30
0.999999
 11
0.241164
 21
3.7428279999999989
 31
0.999999
  0
LINE
  5
274
  8
0
 39
0.999999
 10
0.241164
 20
3.7428279999999989
 30
0.999999
 11
0.217727
 21
3.7662659999999999
 31
0.999999
  0
LINE
  5
275
  8
0
 39
0.999999
 10
0.217727
 20
3.7662659999999999
 30
0.999999
 11
0.155227
 21
3.7662659999999999
 31
0.999999
  0
LINE
  5
276
  8
0
 39
0.999999
 10
0.155227
 20
3.7662659999999999
 30
0.999999
 11
0.131789
 21
3.7428279999999989
 31
0.999999
  0
LINE
  5
277
  8
0
 39
0.999999
 10
0.131789
 20
3.7428279999999989
 30
0.999999
 11
0.131789
 21
3.6334529999999989
 31
0.999999
  0
LINE
  5
278
  8
0
 39
0.999999
 10
0.288039
 20
3.6334529999999989
 30
0.999999
 11
0.311477
 21
3.6100159999999999
 31
0.999999
  0
LINE
  5
279
  8
0
 39
0.999999
 10
0.311477
 20
3.6100159999999999
 30
0.999999
 11
0.373977
 21
3.6100159999999999
 31
0.999999
  0
LINE
  5
27A
  8
0
 39
0.999999
 10
0.373977
 20
3.6100159999999999
 30
0.999999
 11
0.397414
 21
3.6334529999999989
 31
0.999999
  0
LINE
  5
27B
  8
0
 39
0.999999
 10
0.397414
 20
3.6334529999999989
 30
0.999999
 11
0.397414
 21
3.7428279999999989
 31
0.999999
  0
LINE
  5
27C
  8
0
 39
0.999999
 10
0.397414
 20
3.7428279999999989
 30
0.999999
 11
0.373977
 21
3.7662659999999999
 31
0.999999
  0
LINE
  5
27D
  8
0
 39
0.999999
 10
0.373977
 20
3.7662659999999999
 30
0.999999
 11
0.311477
 21
3.7662659999999999
 31
0.999999
  0
LINE
  5
27E
  8
0
 39
0.999999
 10
0.311477
 20
3.7662659999999999
 30
0.999999
 11
0.288039
 21
3.7428279999999989
 31
0.999999
  0
LINE
  5
27F
  8
0
 39
0.999999
 10
0.288039
 20
3.7428279999999989
 30
0.999999
 11
0.288039
 21
3.6334529999999989
 31
0.999999
  0
LINE
  5
280
  8
0
 39
0.999999
 10
1.554446999999999
 20
3.6092749999999989
 30
0.999999
 11
1.554446999999999
 21
3.617087999999999
 31
0.999999
  0
LINE
  5
281
  8
0
 39
0.999999
 10
1.601321999999999
 20
3.742087999999999
 30
0.999999
 11
1.6247590000000001
 21
3.7655249999999989
 31
0.999999
  0
LINE
  5
282
  8
0
 39
0.999999
 10
1.6247590000000001
 20
3.7655249999999989
 30
0.999999
 11
1.6872590000000001
 21
3.7655249999999989
 31
0.999999
  0
LINE
  5
283
  8
0
 39
0.999999
 10
1.6872590000000001
 20
3.7655249999999989
 30
0.999999
 11
1.7106969999999999
 21
3.742087999999999
 31
0.999999
  0
LINE
  5
284
  8
0
 39
0.999999
 10
1.7106969999999999
 20
3.742087999999999
 30
0.999999
 11
1.7106969999999999
 21
3.710837999999999
 31
0.999999
  0
LINE
  5
285
  8
0
 39
0.999999
 10
1.7106969999999999
 20
3.710837999999999
 30
0.999999
 11
1.601321999999999
 21
3.663962999999999
 31
0.999999
  0
LINE
  5
286
  8
0
 39
0.999999
 10
1.601321999999999
 20
3.663962999999999
 30
0.999999
 11
1.601321999999999
 21
3.6092749999999989
 31
0.999999
  0
LINE
  5
287
  8
0
 39
0.999999
 10
1.601321999999999
 20
3.6092749999999989
 30
0.999999
 11
1.7106969999999999
 21
3.6092749999999989
 31
0.999999
  0
LINE
  5
288
  8
0
 39
0.999999
 10
1.7575719999999999
 20
3.7498999999999989
 30
0.999999
 11
1.7575719999999999
 21
3.7655249999999989
 31
0.999999
  0
LINE
  5
289
  8
0
 39
0.999999
 10
1.7575719999999999
 20
3.7655249999999989
 30
0.999999
 11
1.8669469999999999
 21
3.7655249999999989
 31
0.999999
  0
LINE
  5
28A
  8
0
 39
0.999999
 10
1.8669469999999999
 20
3.7655249999999989
 30
0.999999
 11
1.8669469999999999
 21
3.7498999999999989
 31
0.999999
  0
LINE
  5
28B
  8
0
 39
0.999999
 10
1.8669469999999999
 20
3.7498999999999989
 30
0.999999
 11
1.8122590000000001
 21
3.6092749999999989
 31
0.999999
  0
LINE
  5
28C
  8
0
 39
0.999999
 10
1.9138219999999999
 20
3.632712999999999
 30
0.999999
 11
1.9372590000000001
 21
3.6092749999999989
 31
0.999999
  0
LINE
  5
28D
  8
0
 39
0.999999
 10
1.9372590000000001
 20
3.6092749999999989
 30
0.999999
 11
1.9997590000000001
 21
3.6092749999999989
 31
0.999999
  0
LINE
  5
28E
  8
0
 39
0.999999
 10
1.9997590000000001
 20
3.6092749999999989
 30
0.999999
 11
2.0231970000000001
 21
3.632712999999999
 31
0.999999
  0
LINE
  5
28F
  8
0
 39
0.999999
 10
2.0231970000000001
 20
3.632712999999999
 30
0.999999
 11
2.0231970000000001
 21
3.742087999999999
 31
0.999999
  0
LINE
  5
290
  8
0
 39
0.999999
 10
2.0231970000000001
 20
3.742087999999999
 30
0.999999
 11
1.9997590000000001
 21
3.7655249999999989
 31
0.999999
  0
LINE
  5
291
  8
0
 39
0.999999
 10
1.9997590000000001
 20
3.7655249999999989
 30
0.999999
 11
1.9372590000000001
 21
3.7655249999999989
 31
0.999999
  0
LINE
  5
292
  8
0
 39
0.999999
 10
1.9372590000000001
 20
3.7655249999999989
 30
0.999999
 11
1.9138219999999999
 21
3.742087999999999
 31
0.999999
  0
LINE
  5
293
  8
0
 39
0.999999
 10
1.9138219999999999
 20
3.742087999999999
 30
0.999999
 11
1.9138219999999999
 21
3.632712999999999
 31
0.999999
  0
LINE
  5
294
  8
0
 39
0.999999
 10
3.2310110000000001
 20
3.609318
 30
0.999999
 11
3.2310110000000001
 21
3.6171309999999992
 31
0.999999
  0
LINE
  5
295
  8
0
 39
0.999999
 10
3.2700740000000001
 20
3.749943
 30
0.999999
 11
3.2856989999999988
 21
3.765568
 31
0.999999
  0
LINE
  5
296
  8
0
 39
0.999999
 10
3.2856989999999988
 20
3.765568
 30
0.999999
 11
3.2856989999999988
 21
3.609318
 31
0.999999
  0
LINE
  5
297
  8
0
 39
0.999999
 10
3.2700740000000001
 20
3.609318
 30
0.999999
 11
3.3013239999999988
 21
3.609318
 31
0.999999
  0
LINE
  5
298
  8
0
 39
0.999999
 10
3.3403860000000001
 20
3.749943
 30
0.999999
 11
3.3403860000000001
 21
3.765568
 31
0.999999
  0
LINE
  5
299
  8
0
 39
0.999999
 10
3.3403860000000001
 20
3.765568
 30
0.999999
 11
3.4497610000000001
 21
3.765568
 31
0.999999
  0
LINE
  5
29A
  8
0
 39
0.999999
 10
3.4497610000000001
 20
3.765568
 30
0.999999
 11
3.4497610000000001
 21
3.749943
 31
0.999999
  0
LINE
  5
29B
  8
0
 39
0.999999
 10
3.4497610000000001
 20
3.749943
 30
0.999999
 11
3.3950739999999988
 21
3.609318
 31
0.999999
  0
LINE
  5
29C
  8
0
 39
0.999999
 10
3.4966360000000001
 20
3.6327559999999992
 30
0.999999
 11
3.5200739999999988
 21
3.609318
 31
0.999999
  0
LINE
  5
29D
  8
0
 39
0.999999
 10
3.5200739999999988
 20
3.609318
 30
0.999999
 11
3.5825739999999988
 21
3.609318
 31
0.999999
  0
LINE
  5
29E
  8
0
 39
0.999999
 10
3.5825739999999988
 20
3.609318
 30
0.999999
 11
3.6060110000000001
 21
3.6327559999999992
 31
0.999999
  0
LINE
  5
29F
  8
0
 39
0.999999
 10
3.6060110000000001
 20
3.6327559999999992
 30
0.999999
 11
3.6060110000000001
 21
3.7421309999999992
 31
0.999999
  0
LINE
  5
2A0
  8
0
 39
0.999999
 10
3.6060110000000001
 20
3.7421309999999992
 30
0.999999
 11
3.5825739999999988
 21
3.765568
 31
0.999999
  0
LINE
  5
2A1
  8
0
 39
0.999999
 10
3.5825739999999988
 20
3.765568
 30
0.999999
 11
3.5200739999999988
 21
3.765568
 31
0.999999
  0
LINE
  5
2A2
  8
0
 39
0.999999
 10
3.5200739999999988
 20
3.765568
 30
0.999999
 11
3.4966360000000001
 21
3.7421309999999992
 31
0.999999
  0
LINE
  5
2A3
  8
0
 39
0.999999
 10
3.4966360000000001
 20
3.7421309999999992
 30
0.999999
 11
3.4966360000000001
 21
3.6327559999999992
 31
0.999999
  0
LINE
  5
2A4
  8
0
 10
-1.636719
 20
2.9844009999999992
 30
0.0
 11
-1.636719
 21
3.1406509999999992
 31
0.0
  0
LINE
  5
2A5
  8
0
 10
-1.636719
 20
3.1406509999999992
 30
0.0
 11
-1.5507809999999991
 21
3.1406509999999992
 31
0.0
  0
LINE
  5
2A6
  8
0
 10
-1.5507809999999991
 20
3.1406509999999992
 30
0.0
 11
-1.527344
 21
3.117213
 31
0.0
  0
LINE
  5
2A7
  8
0
 10
-1.527344
 20
3.117213
 30
0.0
 11
-1.527344
 21
3.085963
 31
0.0
  0
LINE
  5
2A8
  8
0
 10
-1.527344
 20
3.085963
 30
0.0
 11
-1.5507809999999991
 21
3.0625259999999992
 31
0.0
  0
LINE
  5
2A9
  8
0
 10
-1.5507809999999991
 20
3.0625259999999992
 30
0.0
 11
-1.636719
 21
3.0625259999999992
 31
0.0
  0
LINE
  5
2AA
  8
0
 10
-1.371094
 20
3.117213
 30
0.0
 11
-1.3945309999999991
 21
3.1406509999999992
 31
0.0
  0
LINE
  5
2AB
  8
0
 10
-1.3945309999999991
 20
3.1406509999999992
 30
0.0
 11
-1.4570309999999991
 21
3.1406509999999992
 31
0.0
  0
LINE
  5
2AC
  8
0
 10
-1.4570309999999991
 20
3.1406509999999992
 30
0.0
 11
-1.480469
 21
3.117213
 31
0.0
  0
LINE
  5
2AD
  8
0
 10
-1.480469
 20
3.117213
 30
0.0
 11
-1.480469
 21
3.007838
 31
0.0
  0
LINE
  5
2AE
  8
0
 10
-1.480469
 20
3.007838
 30
0.0
 11
-1.4570309999999991
 21
2.9844009999999992
 31
0.0
  0
LINE
  5
2AF
  8
0
 10
-1.4570309999999991
 20
2.9844009999999992
 30
0.0
 11
-1.3945309999999991
 21
2.9844009999999992
 31
0.0
  0
LINE
  5
2B0
  8
0
 10
-1.3945309999999991
 20
2.9844009999999992
 30
0.0
 11
-1.371094
 21
3.007838
 31
0.0
  0
LINE
  5
2B1
  8
0
 10
-1.3320309999999991
 20
3.1250259999999992
 30
0.0
 11
-1.3164059999999991
 21
3.1406509999999992
 31
0.0
  0
LINE
  5
2B2
  8
0
 10
-1.3164059999999991
 20
3.1406509999999992
 30
0.0
 11
-1.3164059999999991
 21
2.9844009999999992
 31
0.0
  0
LINE
  5
2B3
  8
0
 10
-1.3320309999999991
 20
2.9844009999999992
 30
0.0
 11
-1.3007809999999991
 21
2.9844009999999992
 31
0.0
  0
LINE
  5
2B4
  8
0
 10
-1.2695309999999991
 20
3.1250259999999992
 30
0.0
 11
-1.2539059999999991
 21
3.1406509999999992
 31
0.0
  0
LINE
  5
2B5
  8
0
 10
-1.2539059999999991
 20
3.1406509999999992
 30
0.0
 11
-1.2539059999999991
 21
2.9844009999999992
 31
0.0
  0
LINE
  5
2B6
  8
0
 10
-1.2695309999999991
 20
2.9844009999999992
 30
0.0
 11
-1.2382809999999991
 21
2.9844009999999992
 31
0.0
  0
LINE
  5
2B7
  8
0
 10
-1.1917189999999991
 20
3.1406509999999992
 30
0.0
 11
-1.1917189999999991
 21
2.9844009999999992
 31
0.0
  0
LINE
  5
2B8
  8
0
 10
-1.1917189999999991
 20
2.9844009999999992
 30
0.0
 11
-1.0823439999999991
 21
2.9844009999999992
 31
0.0
  0
LINE
  5
2B9
  8
0
 10
-0.071285
 20
2.9813259999999988
 30
0.0
 11
-0.071285
 21
2.9891389999999989
 31
0.0
  0
LINE
  5
2BA
  8
0
 10
-0.02441
 20
3.1219509999999988
 30
0.0
 11
-0.02441
 21
3.1375759999999988
 31
0.0
  0
LINE
  5
2BB
  8
0
 10
-0.02441
 20
3.1375759999999988
 30
0.0
 11
0.084965
 21
3.1375759999999988
 31
0.0
  0
LINE
  5
2BC
  8
0
 10
0.084965
 20
3.1375759999999988
 30
0.0
 11
0.084965
 21
3.1219509999999988
 31
0.0
  0
LINE
  5
2BD
  8
0
 10
0.084965
 20
3.1219509999999988
 30
0.0
 11
0.030277
 21
2.9813259999999988
 31
0.0
  0
LINE
  5
2BE
  8
0
 10
0.241215
 20
3.1141389999999989
 30
0.0
 11
0.217777
 21
3.1375759999999988
 31
0.0
  0
LINE
  5
2BF
  8
0
 10
0.217777
 20
3.1375759999999988
 30
0.0
 11
0.155277
 21
3.1375759999999988
 31
0.0
  0
LINE
  5
2C0
  8
0
 10
0.155277
 20
3.1375759999999988
 30
0.0
 11
0.13184
 21
3.1141389999999989
 31
0.0
  0
LINE
  5
2C1
  8
0
 10
0.13184
 20
3.1141389999999989
 30
0.0
 11
0.13184
 21
3.0047639999999989
 31
0.0
  0
LINE
  5
2C2
  8
0
 10
0.13184
 20
3.0047639999999989
 30
0.0
 11
0.155277
 21
2.9813259999999988
 31
0.0
  0
LINE
  5
2C3
  8
0
 10
0.155277
 20
2.9813259999999988
 30
0.0
 11
0.217777
 21
2.9813259999999988
 31
0.0
  0
LINE
  5
2C4
  8
0
 10
0.217777
 20
2.9813259999999988
 30
0.0
 11
0.241215
 21
3.0047639999999989
 31
0.0
  0
LINE
  5
2C5
  8
0
 10
0.241215
 20
3.0047639999999989
 30
0.0
 11
0.241215
 21
3.0360139999999989
 31
0.0
  0
LINE
  5
2C6
  8
0
 10
0.241215
 20
3.0360139999999989
 30
0.0
 11
0.217777
 21
3.0594509999999988
 31
0.0
  0
LINE
  5
2C7
  8
0
 10
0.217777
 20
3.0594509999999988
 30
0.0
 11
0.155277
 21
3.0594509999999988
 31
0.0
  0
LINE
  5
2C8
  8
0
 10
0.155277
 20
3.0594509999999988
 30
0.0
 11
0.13184
 21
3.0360139999999989
 31
0.0
  0
LINE
  5
2C9
  8
0
 10
0.397465
 20
3.1375759999999988
 30
0.0
 11
0.28809
 21
3.1375759999999988
 31
0.0
  0
LINE
  5
2CA
  8
0
 10
0.28809
 20
3.1375759999999988
 30
0.0
 11
0.28809
 21
3.0750759999999988
 31
0.0
  0
LINE
  5
2CB
  8
0
 10
0.28809
 20
3.0750759999999988
 30
0.0
 11
0.374027
 21
3.0750759999999988
 31
0.0
  0
LINE
  5
2CC
  8
0
 10
0.374027
 20
3.0750759999999988
 30
0.0
 11
0.397465
 21
3.0516389999999989
 31
0.0
  0
LINE
  5
2CD
  8
0
 10
0.397465
 20
3.0516389999999989
 30
0.0
 11
0.397465
 21
3.0047639999999989
 31
0.0
  0
LINE
  5
2CE
  8
0
 10
0.397465
 20
3.0047639999999989
 30
0.0
 11
0.374027
 21
2.9813259999999988
 31
0.0
  0
LINE
  5
2CF
  8
0
 10
0.374027
 20
2.9813259999999988
 30
0.0
 11
0.311527
 21
2.9813259999999988
 31
0.0
  0
LINE
  5
2D0
  8
0
 10
0.311527
 20
2.9813259999999988
 30
0.0
 11
0.28809
 21
3.0047639999999989
 31
0.0
  0
LINE
  5
2D1
  8
0
 39
0.999999
 10
1.5553549999999989
 20
2.9803289999999998
 30
0.999999
 11
1.5553549999999989
 21
2.988141999999999
 31
0.999999
  0
LINE
  5
2D2
  8
0
 39
0.999999
 10
1.6022299999999989
 20
3.113141999999999
 30
0.999999
 11
1.6256669999999991
 21
3.1365789999999998
 31
0.999999
  0
LINE
  5
2D3
  8
0
 39
0.999999
 10
1.6256669999999991
 20
3.1365789999999998
 30
0.999999
 11
1.6881669999999991
 21
3.1365789999999998
 31
0.999999
  0
LINE
  5
2D4
  8
0
 39
0.999999
 10
1.6881669999999991
 20
3.1365789999999998
 30
0.999999
 11
1.7116049999999989
 21
3.113141999999999
 31
0.999999
  0
LINE
  5
2D5
  8
0
 39
0.999999
 10
1.7116049999999989
 20
3.113141999999999
 30
0.999999
 11
1.7116049999999989
 21
3.081891999999999
 31
0.999999
  0
LINE
  5
2D6
  8
0
 39
0.999999
 10
1.7116049999999989
 20
3.081891999999999
 30
0.999999
 11
1.6881669999999991
 21
3.0584539999999998
 31
0.999999
  0
LINE
  5
2D7
  8
0
 39
0.999999
 10
1.6881669999999991
 20
3.0584539999999998
 30
0.999999
 11
1.6412919999999991
 21
3.0584539999999998
 31
0.999999
  0
LINE
  5
2D8
  8
0
 39
0.999999
 10
1.6881669999999991
 20
3.0584539999999998
 30
0.999999
 11
1.7116049999999989
 21
3.035016999999999
 31
0.999999
  0
LINE
  5
2D9
  8
0
 39
0.999999
 10
1.7116049999999989
 20
3.035016999999999
 30
0.999999
 11
1.7116049999999989
 21
3.003766999999999
 31
0.999999
  0
LINE
  5
2DA
  8
0
 39
0.999999
 10
1.7116049999999989
 20
3.003766999999999
 30
0.999999
 11
1.6881669999999991
 21
2.9803289999999998
 31
0.999999
  0
LINE
  5
2DB
  8
0
 39
0.999999
 10
1.6881669999999991
 20
2.9803289999999998
 30
0.999999
 11
1.6256669999999991
 21
2.9803289999999998
 31
0.999999
  0
LINE
  5
2DC
  8
0
 39
0.999999
 10
1.6256669999999991
 20
2.9803289999999998
 30
0.999999
 11
1.6022299999999989
 21
3.003766999999999
 31
0.999999
  0
LINE
  5
2DD
  8
0
 39
0.999999
 10
1.7584799999999989
 20
3.113141999999999
 30
0.999999
 11
1.7819169999999991
 21
3.1365789999999998
 31
0.999999
  0
LINE
  5
2DE
  8
0
 39
0.999999
 10
1.7819169999999991
 20
3.1365789999999998
 30
0.999999
 11
1.8444169999999991
 21
3.1365789999999998
 31
0.999999
  0
LINE
  5
2DF
  8
0
 39
0.999999
 10
1.8444169999999991
 20
3.1365789999999998
 30
0.999999
 11
1.8678549999999989
 21
3.113141999999999
 31
0.999999
  0
LINE
  5
2E0
  8
0
 39
0.999999
 10
1.8678549999999989
 20
3.113141999999999
 30
0.999999
 11
1.8678549999999989
 21
3.081891999999999
 31
0.999999
  0
LINE
  5
2E1
  8
0
 39
0.999999
 10
1.8678549999999989
 20
3.081891999999999
 30
0.999999
 11
1.8444169999999991
 21
3.0584539999999998
 31
0.999999
  0
LINE
  5
2E2
  8
0
 39
0.999999
 10
1.8444169999999991
 20
3.0584539999999998
 30
0.999999
 11
1.7975419999999991
 21
3.0584539999999998
 31
0.999999
  0
LINE
  5
2E3
  8
0
 39
0.999999
 10
1.8444169999999991
 20
3.0584539999999998
 30
0.999999
 11
1.8678549999999989
 21
3.035016999999999
 31
0.999999
  0
LINE
  5
2E4
  8
0
 39
0.999999
 10
1.8678549999999989
 20
3.035016999999999
 30
0.999999
 11
1.8678549999999989
 21
3.003766999999999
 31
0.999999
  0
LINE
  5
2E5
  8
0
 39
0.999999
 10
1.8678549999999989
 20
3.003766999999999
 30
0.999999
 11
1.8444169999999991
 21
2.9803289999999998
 31
0.999999
  0
LINE
  5
2E6
  8
0
 39
0.999999
 10
1.8444169999999991
 20
2.9803289999999998
 30
0.999999
 11
1.7819169999999991
 21
2.9803289999999998
 31
0.999999
  0
LINE
  5
2E7
  8
0
 39
0.999999
 10
1.7819169999999991
 20
2.9803289999999998
 30
0.999999
 11
1.7584799999999989
 21
3.003766999999999
 31
0.999999
  0
LINE
  5
2E8
  8
0
 39
0.999999
 10
2.024105
 20
3.1365789999999998
 30
0.999999
 11
1.9147299999999989
 21
3.1365789999999998
 31
0.999999
  0
LINE
  5
2E9
  8
0
 39
0.999999
 10
1.9147299999999989
 20
3.1365789999999998
 30
0.999999
 11
1.9147299999999989
 21
3.0740789999999998
 31
0.999999
  0
LINE
  5
2EA
  8
0
 39
0.999999
 10
1.9147299999999989
 20
3.0740789999999998
 30
0.999999
 11
2.0006669999999991
 21
3.0740789999999998
 31
0.999999
  0
LINE
  5
2EB
  8
0
 39
0.999999
 10
2.0006669999999991
 20
3.0740789999999998
 30
0.999999
 11
2.024105
 21
3.050641999999999
 31
0.999999
  0
LINE
  5
2EC
  8
0
 39
0.999999
 10
2.024105
 20
3.050641999999999
 30
0.999999
 11
2.024105
 21
3.003766999999999
 31
0.999999
  0
LINE
  5
2ED
  8
0
 39
0.999999
 10
2.024105
 20
3.003766999999999
 30
0.999999
 11
2.0006669999999991
 21
2.9803289999999998
 31
0.999999
  0
LINE
  5
2EE
  8
0
 39
0.999999
 10
2.0006669999999991
 20
2.9803289999999998
 30
0.999999
 11
1.9381669999999991
 21
2.9803289999999998
 31
0.999999
  0
LINE
  5
2EF
  8
0
 39
0.999999
 10
1.9381669999999991
 20
2.9803289999999998
 30
0.999999
 11
1.9147299999999989
 21
3.003766999999999
 31
0.999999
  0
LINE
  5
2F0
  8
0
 39
0.999999
 10
3.181843999999999
 20
2.9822259999999989
 30
0.999999
 11
3.181843999999999
 21
2.990038999999999
 31
0.999999
  0
LINE
  5
2F1
  8
0
 39
0.999999
 10
3.228718999999999
 20
3.115038999999999
 30
0.999999
 11
3.2521559999999998
 21
3.1384759999999989
 31
0.999999
  0
LINE
  5
2F2
  8
0
 39
0.999999
 10
3.2521559999999998
 20
3.1384759999999989
 30
0.999999
 11
3.3146559999999989
 21
3.1384759999999989
 31
0.999999
  0
LINE
  5
2F3
  8
0
 39
0.999999
 10
3.3146559999999989
 20
3.1384759999999989
 30
0.999999
 11
3.3380939999999999
 21
3.115038999999999
 31
0.999999
  0
LINE
  5
2F4
  8
0
 39
0.999999
 10
3.3380939999999999
 20
3.115038999999999
 30
0.999999
 11
3.3380939999999999
 21
3.083788999999999
 31
0.999999
  0
LINE
  5
2F5
  8
0
 39
0.999999
 10
3.3380939999999999
 20
3.083788999999999
 30
0.999999
 11
3.228718999999999
 21
3.036913999999999
 31
0.999999
  0
LINE
  5
2F6
  8
0
 39
0.999999
 10
3.228718999999999
 20
3.036913999999999
 30
0.999999
 11
3.228718999999999
 21
2.9822259999999989
 31
0.999999
  0
LINE
  5
2F7
  8
0
 39
0.999999
 10
3.228718999999999
 20
2.9822259999999989
 30
0.999999
 11
3.3380939999999999
 21
2.9822259999999989
 31
0.999999
  0
LINE
  5
2F8
  8
0
 39
0.999999
 10
3.3849689999999999
 20
3.115038999999999
 30
0.999999
 11
3.4084059999999989
 21
3.1384759999999989
 31
0.999999
  0
LINE
  5
2F9
  8
0
 39
0.999999
 10
3.4084059999999989
 20
3.1384759999999989
 30
0.999999
 11
3.4709059999999989
 21
3.1384759999999989
 31
0.999999
  0
LINE
  5
2FA
  8
0
 39
0.999999
 10
3.4709059999999989
 20
3.1384759999999989
 30
0.999999
 11
3.4943439999999999
 21
3.115038999999999
 31
0.999999
  0
LINE
  5
2FB
  8
0
 39
0.999999
 10
3.4943439999999999
 20
3.115038999999999
 30
0.999999
 11
3.4943439999999999
 21
3.083788999999999
 31
0.999999
  0
LINE
  5
2FC
  8
0
 39
0.999999
 10
3.4943439999999999
 20
3.083788999999999
 30
0.999999
 11
3.4709059999999989
 21
3.0603509999999989
 31
0.999999
  0
LINE
  5
2FD
  8
0
 39
0.999999
 10
3.4709059999999989
 20
3.0603509999999989
 30
0.999999
 11
3.4240309999999989
 21
3.0603509999999989
 31
0.999999
  0
LINE
  5
2FE
  8
0
 39
0.999999
 10
3.4709059999999989
 20
3.0603509999999989
 30
0.999999
 11
3.4943439999999999
 21
3.036913999999999
 31
0.999999
  0
LINE
  5
2FF
  8
0
 39
0.999999
 10
3.4943439999999999
 20
3.036913999999999
 30
0.999999
 11
3.4943439999999999
 21
3.005663999999999
 31
0.999999
  0
LINE
  5
300
  8
0
 39
0.999999
 10
3.4943439999999999
 20
3.005663999999999
 30
0.999999
 11
3.4709059999999989
 21
2.9822259999999989
 31
0.999999
  0
LINE
  5
301
  8
0
 39
0.999999
 10
3.4709059999999989
 20
2.9822259999999989
 30
0.999999
 11
3.4084059999999989
 21
2.9822259999999989
 31
0.999999
  0
LINE
  5
302
  8
0
 39
0.999999
 10
3.4084059999999989
 20
2.9822259999999989
 30
0.999999
 11
3.3849689999999999
 21
3.005663999999999
 31
0.999999
  0
LINE
  5
303
  8
0
 39
0.999999
 10
3.6505939999999999
 20
3.1384759999999989
 30
0.999999
 11
3.5412189999999999
 21
3.1384759999999989
 31
0.999999
  0
LINE
  5
304
  8
0
 39
0.999999
 10
3.5412189999999999
 20
3.1384759999999989
 30
0.999999
 11
3.5412189999999999
 21
3.0759759999999989
 31
0.999999
  0
LINE
  5
305
  8
0
 39
0.999999
 10
3.5412189999999999
 20
3.0759759999999989
 30
0.999999
 11
3.6271559999999989
 21
3.0759759999999989
 31
0.999999
  0
LINE
  5
306
  8
0
 39
0.999999
 10
3.6271559999999989
 20
3.0759759999999989
 30
0.999999
 11
3.6505939999999999
 21
3.052538999999999
 31
0.999999
  0
LINE
  5
307
  8
0
 39
0.999999
 10
3.6505939999999999
 20
3.052538999999999
 30
0.999999
 11
3.6505939999999999
 21
3.005663999999999
 31
0.999999
  0
LINE
  5
308
  8
0
 39
0.999999
 10
3.6505939999999999
 20
3.005663999999999
 30
0.999999
 11
3.6271559999999989
 21
2.9822259999999989
 31
0.999999
  0
LINE
  5
309
  8
0
 39
0.999999
 10
3.6271559999999989
 20
2.9822259999999989
 30
0.999999
 11
3.5646559999999989
 21
2.9822259999999989
 31
0.999999
  0
LINE
  5
30A
  8
0
 39
0.999999
 10
3.5646559999999989
 20
2.9822259999999989
 30
0.999999
 11
3.5412189999999999
 21
3.005663999999999
 31
0.999999
  0
LINE
  5
30B
  8
0
 10
-1.636719
 20
2.3594009999999992
 30
0.0
 11
-1.636719
 21
2.5156509999999992
 31
0.0
  0
LINE
  5
30C
  8
0
 10
-1.636719
 20
2.5156509999999992
 30
0.0
 11
-1.5507809999999991
 21
2.5156509999999992
 31
0.0
  0
LINE
  5
30D
  8
0
 10
-1.5507809999999991
 20
2.5156509999999992
 30
0.0
 11
-1.527344
 21
2.492213
 31
0.0
  0
LINE
  5
30E
  8
0
 10
-1.527344
 20
2.492213
 30
0.0
 11
-1.527344
 21
2.460963
 31
0.0
  0
LINE
  5
30F
  8
0
 10
-1.527344
 20
2.460963
 30
0.0
 11
-1.5507809999999991
 21
2.4375259999999992
 31
0.0
  0
LINE
  5
310
  8
0
 10
-1.5507809999999991
 20
2.4375259999999992
 30
0.0
 11
-1.636719
 21
2.4375259999999992
 31
0.0
  0
LINE
  5
311
  8
0
 10
-1.371094
 20
2.492213
 30
0.0
 11
-1.3945309999999991
 21
2.5156509999999992
 31
0.0
  0
LINE
  5
312
  8
0
 10
-1.3945309999999991
 20
2.5156509999999992
 30
0.0
 11
-1.4570309999999991
 21
2.5156509999999992
 31
0.0
  0
LINE
  5
313
  8
0
 10
-1.4570309999999991
 20
2.5156509999999992
 30
0.0
 11
-1.480469
 21
2.492213
 31
0.0
  0
LINE
  5
314
  8
0
 10
-1.480469
 20
2.492213
 30
0.0
 11
-1.480469
 21
2.382838
 31
0.0
  0
LINE
  5
315
  8
0
 10
-1.480469
 20
2.382838
 30
0.0
 11
-1.4570309999999991
 21
2.3594009999999992
 31
0.0
  0
LINE
  5
316
  8
0
 10
-1.4570309999999991
 20
2.3594009999999992
 30
0.0
 11
-1.3945309999999991
 21
2.3594009999999992
 31
0.0
  0
LINE
  5
317
  8
0
 10
-1.3945309999999991
 20
2.3594009999999992
 30
0.0
 11
-1.371094
 21
2.382838
 31
0.0
  0
LINE
  5
318
  8
0
 10
-1.3320309999999991
 20
2.5000259999999992
 30
0.0
 11
-1.3164059999999991
 21
2.5156509999999992
 31
0.0
  0
LINE
  5
319
  8
0
 10
-1.3164059999999991
 20
2.5156509999999992
 30
0.0
 11
-1.3164059999999991
 21
2.3594009999999992
 31
0.0
  0
LINE
  5
31A
  8
0
 10
-1.3320309999999991
 20
2.3594009999999992
 30
0.0
 11
-1.3007809999999991
 21
2.3594009999999992
 31
0.0
  0
LINE
  5
31B
  8
0
 10
-1.261719
 20
2.492213
 30
0.0
 11
-1.2382809999999991
 21
2.5156509999999992
 31
0.0
  0
LINE
  5
31C
  8
0
 10
-1.2382809999999991
 20
2.5156509999999992
 30
0.0
 11
-1.1757809999999991
 21
2.5156509999999992
 31
0.0
  0
LINE
  5
31D
  8
0
 10
-1.1757809999999991
 20
2.5156509999999992
 30
0.0
 11
-1.152344
 21
2.492213
 31
0.0
  0
LINE
  5
31E
  8
0
 10
-1.152344
 20
2.492213
 30
0.0
 11
-1.152344
 21
2.460963
 31
0.0
  0
LINE
  5
31F
  8
0
 10
-1.152344
 20
2.460963
 30
0.0
 11
-1.261719
 21
2.414088
 31
0.0
  0
LINE
  5
320
  8
0
 10
-1.261719
 20
2.414088
 30
0.0
 11
-1.261719
 21
2.3594009999999992
 31
0.0
  0
LINE
  5
321
  8
0
 10
-1.261719
 20
2.3594009999999992
 30
0.0
 11
-1.152344
 21
2.3594009999999992
 31
0.0
  0
LINE
  5
322
  8
0
 10
-0.070206
 20
2.361845999999999
 30
0.0
 11
-0.070206
 21
2.3696589999999991
 31
0.0
  0
LINE
  5
323
  8
0
 10
-0.023331
 20
2.377470999999999
 30
0.0
 11
-0.007706
 21
2.361845999999999
 31
0.0
  0
LINE
  5
324
  8
0
 10
-0.007706
 20
2.361845999999999
 30
0.0
 11
0.070419
 21
2.361845999999999
 31
0.0
  0
LINE
  5
325
  8
0
 10
0.070419
 20
2.361845999999999
 30
0.0
 11
0.086044
 21
2.377470999999999
 31
0.0
  0
LINE
  5
326
  8
0
 10
0.086044
 20
2.377470999999999
 30
0.0
 11
0.086044
 21
2.424345999999999
 31
0.0
  0
LINE
  5
327
  8
0
 10
0.086044
 20
2.424345999999999
 30
0.0
 11
0.070419
 21
2.439970999999999
 31
0.0
  0
LINE
  5
328
  8
0
 10
0.070419
 20
2.439970999999999
 30
0.0
 11
-0.007706
 21
2.439970999999999
 31
0.0
  0
LINE
  5
329
  8
0
 10
-0.007706
 20
2.439970999999999
 30
0.0
 11
-0.023331
 21
2.455595999999999
 31
0.0
  0
LINE
  5
32A
  8
0
 10
-0.023331
 20
2.455595999999999
 30
0.0
 11
-0.023331
 21
2.502470999999999
 31
0.0
  0
LINE
  5
32B
  8
0
 10
-0.023331
 20
2.502470999999999
 30
0.0
 11
-0.007706
 21
2.518095999999999
 31
0.0
  0
LINE
  5
32C
  8
0
 10
-0.007706
 20
2.518095999999999
 30
0.0
 11
0.070419
 21
2.518095999999999
 31
0.0
  0
LINE
  5
32D
  8
0
 10
0.070419
 20
2.518095999999999
 30
0.0
 11
0.086044
 21
2.502470999999999
 31
0.0
  0
LINE
  5
32E
  8
0
 10
0.086044
 20
2.502470999999999
 30
0.0
 11
0.086044
 21
2.455595999999999
 31
0.0
  0
LINE
  5
32F
  8
0
 10
0.086044
 20
2.455595999999999
 30
0.0
 11
0.070419
 21
2.439970999999999
 31
0.0
  0
LINE
  5
330
  8
0
 10
-0.007706
 20
2.439970999999999
 30
0.0
 11
-0.023331
 21
2.424345999999999
 31
0.0
  0
LINE
  5
331
  8
0
 10
-0.023331
 20
2.424345999999999
 30
0.0
 11
-0.023331
 21
2.377470999999999
 31
0.0
  0
LINE
  5
332
  8
0
 10
0.218856
 20
2.361845999999999
 30
0.0
 11
0.242294
 21
2.4634089999999991
 31
0.0
  0
LINE
  5
333
  8
0
 10
0.242294
 20
2.4634089999999991
 30
0.0
 11
0.242294
 21
2.4946589999999991
 31
0.0
  0
LINE
  5
334
  8
0
 10
0.242294
 20
2.4946589999999991
 30
0.0
 11
0.218856
 21
2.518095999999999
 31
0.0
  0
LINE
  5
335
  8
0
 10
0.218856
 20
2.518095999999999
 30
0.0
 11
0.156356
 21
2.518095999999999
 31
0.0
  0
LINE
  5
336
  8
0
 10
0.156356
 20
2.518095999999999
 30
0.0
 11
0.132919
 21
2.4946589999999991
 31
0.0
  0
LINE
  5
337
  8
0
 10
0.132919
 20
2.4946589999999991
 30
0.0
 11
0.132919
 21
2.4634089999999991
 31
0.0
  0
LINE
  5
338
  8
0
 10
0.132919
 20
2.4634089999999991
 30
0.0
 11
0.156356
 21
2.439970999999999
 31
0.0
  0
LINE
  5
339
  8
0
 10
0.156356
 20
2.439970999999999
 30
0.0
 11
0.236885
 21
2.439970999999999
 31
0.0
  0
LINE
  5
33A
  8
0
 10
0.289169
 20
2.4946589999999991
 30
0.0
 11
0.312606
 21
2.518095999999999
 31
0.0
  0
LINE
  5
33B
  8
0
 10
0.312606
 20
2.518095999999999
 30
0.0
 11
0.375106
 21
2.518095999999999
 31
0.0
  0
LINE
  5
33C
  8
0
 10
0.375106
 20
2.518095999999999
 30
0.0
 11
0.398544
 21
2.4946589999999991
 31
0.0
  0
LINE
  5
33D
  8
0
 10
0.398544
 20
2.4946589999999991
 30
0.0
 11
0.398544
 21
2.4634089999999991
 31
0.0
  0
LINE
  5
33E
  8
0
 10
0.398544
 20
2.4634089999999991
 30
0.0
 11
0.375106
 21
2.439970999999999
 31
0.0
  0
LINE
  5
33F
  8
0
 10
0.375106
 20
2.439970999999999
 30
0.0
 11
0.328231
 21
2.439970999999999
 31
0.0
  0
LINE
  5
340
  8
0
 10
0.375106
 20
2.439970999999999
 30
0.0
 11
0.398544
 21
2.4165339999999991
 31
0.0
  0
LINE
  5
341
  8
0
 10
0.398544
 20
2.4165339999999991
 30
0.0
 11
0.398544
 21
2.3852839999999991
 31
0.0
  0
LINE
  5
342
  8
0
 10
0.398544
 20
2.3852839999999991
 30
0.0
 11
0.375106
 21
2.361845999999999
 31
0.0
  0
LINE
  5
343
  8
0
 10
0.375106
 20
2.361845999999999
 30
0.0
 11
0.312606
 21
2.361845999999999
 31
0.0
  0
LINE
  5
344
  8
0
 10
0.312606
 20
2.361845999999999
 30
0.0
 11
0.289169
 21
2.3852839999999991
 31
0.0
  0
LINE
  5
345
  8
0
 10
1.5516179999999991
 20
2.3622030000000001
 30
0.0
 11
1.5516179999999991
 21
2.3700149999999991
 31
0.0
  0
LINE
  5
346
  8
0
 10
1.5984929999999991
 20
2.4950149999999991
 30
0.0
 11
1.621929999999999
 21
2.5184530000000001
 31
0.0
  0
LINE
  5
347
  8
0
 10
1.621929999999999
 20
2.5184530000000001
 30
0.0
 11
1.684429999999999
 21
2.5184530000000001
 31
0.0
  0
LINE
  5
348
  8
0
 10
1.684429999999999
 20
2.5184530000000001
 30
0.0
 11
1.7078679999999991
 21
2.4950149999999991
 31
0.0
  0
LINE
  5
349
  8
0
 10
1.7078679999999991
 20
2.4950149999999991
 30
0.0
 11
1.7078679999999991
 21
2.4637649999999991
 31
0.0
  0
LINE
  5
34A
  8
0
 10
1.7078679999999991
 20
2.4637649999999991
 30
0.0
 11
1.5984929999999991
 21
2.4168899999999991
 31
0.0
  0
LINE
  5
34B
  8
0
 10
1.5984929999999991
 20
2.4168899999999991
 30
0.0
 11
1.5984929999999991
 21
2.3622030000000001
 31
0.0
  0
LINE
  5
34C
  8
0
 10
1.5984929999999991
 20
2.3622030000000001
 30
0.0
 11
1.7078679999999991
 21
2.3622030000000001
 31
0.0
  0
LINE
  5
34D
  8
0
 10
1.7547429999999991
 20
2.5028280000000001
 30
0.0
 11
1.7547429999999991
 21
2.5184530000000001
 31
0.0
  0
LINE
  5
34E
  8
0
 10
1.7547429999999991
 20
2.5184530000000001
 30
0.0
 11
1.8641179999999991
 21
2.5184530000000001
 31
0.0
  0
LINE
  5
34F
  8
0
 10
1.8641179999999991
 20
2.5184530000000001
 30
0.0
 11
1.8641179999999991
 21
2.5028280000000001
 31
0.0
  0
LINE
  5
350
  8
0
 10
1.8641179999999991
 20
2.5028280000000001
 30
0.0
 11
1.809429999999999
 21
2.3622030000000001
 31
0.0
  0
LINE
  5
351
  8
0
 10
2.0203679999999991
 20
2.5184530000000001
 30
0.0
 11
1.9109929999999991
 21
2.5184530000000001
 31
0.0
  0
LINE
  5
352
  8
0
 10
1.9109929999999991
 20
2.5184530000000001
 30
0.0
 11
1.9109929999999991
 21
2.4559530000000001
 31
0.0
  0
LINE
  5
353
  8
0
 10
1.9109929999999991
 20
2.4559530000000001
 30
0.0
 11
1.996929999999999
 21
2.4559530000000001
 31
0.0
  0
LINE
  5
354
  8
0
 10
1.996929999999999
 20
2.4559530000000001
 30
0.0
 11
2.0203679999999991
 21
2.4325149999999991
 31
0.0
  0
LINE
  5
355
  8
0
 10
2.0203679999999991
 20
2.4325149999999991
 30
0.0
 11
2.0203679999999991
 21
2.3856399999999991
 31
0.0
  0
LINE
  5
356
  8
0
 10
2.0203679999999991
 20
2.3856399999999991
 30
0.0
 11
1.996929999999999
 21
2.3622030000000001
 31
0.0
  0
LINE
  5
357
  8
0
 10
1.996929999999999
 20
2.3622030000000001
 30
0.0
 11
1.934429999999999
 21
2.3622030000000001
 31
0.0
  0
LINE
  5
358
  8
0
 10
1.934429999999999
 20
2.3622030000000001
 30
0.0
 11
1.9109929999999991
 21
2.3856399999999991
 31
0.0
  0
LINE
  5
359
  8
0
 39
0.999999
 10
3.2312829999999999
 20
2.3555980000000001
 30
0.999999
 11
3.2312829999999999
 21
2.36341
 31
0.999999
  0
LINE
  5
35A
  8
0
 39
0.999999
 10
3.2703449999999998
 20
2.4962230000000001
 30
0.999999
 11
3.2859699999999989
 21
2.5118480000000001
 31
0.999999
  0
LINE
  5
35B
  8
0
 39
0.999999
 10
3.2859699999999989
 20
2.5118480000000001
 30
0.999999
 11
3.2859699999999989
 21
2.3555980000000001
 31
0.999999
  0
LINE
  5
35C
  8
0
 39
0.999999
 10
3.2703449999999998
 20
2.3555980000000001
 30
0.999999
 11
3.3015949999999989
 21
2.3555980000000001
 31
0.999999
  0
LINE
  5
35D
  8
0
 39
0.999999
 10
3.3406579999999999
 20
2.3712230000000001
 30
0.999999
 11
3.3562829999999999
 21
2.3555980000000001
 31
0.999999
  0
LINE
  5
35E
  8
0
 39
0.999999
 10
3.3562829999999999
 20
2.3555980000000001
 30
0.999999
 11
3.4344079999999999
 21
2.3555980000000001
 31
0.999999
  0
LINE
  5
35F
  8
0
 39
0.999999
 10
3.4344079999999999
 20
2.3555980000000001
 30
0.999999
 11
3.4500329999999999
 21
2.3712230000000001
 31
0.999999
  0
LINE
  5
360
  8
0
 39
0.999999
 10
3.4500329999999999
 20
2.3712230000000001
 30
0.999999
 11
3.4500329999999999
 21
2.4180980000000001
 31
0.999999
  0
LINE
  5
361
  8
0
 39
0.999999
 10
3.4500329999999999
 20
2.4180980000000001
 30
0.999999
 11
3.4344079999999999
 21
2.4337230000000001
 31
0.999999
  0
LINE
  5
362
  8
0
 39
0.999999
 10
3.4344079999999999
 20
2.4337230000000001
 30
0.999999
 11
3.3562829999999999
 21
2.4337230000000001
 31
0.999999
  0
LINE
  5
363
  8
0
 39
0.999999
 10
3.3562829999999999
 20
2.4337230000000001
 30
0.999999
 11
3.3406579999999999
 21
2.4493480000000001
 31
0.999999
  0
LINE
  5
364
  8
0
 39
0.999999
 10
3.3406579999999999
 20
2.4493480000000001
 30
0.999999
 11
3.3406579999999999
 21
2.4962230000000001
 31
0.999999
  0
LINE
  5
365
  8
0
 39
0.999999
 10
3.3406579999999999
 20
2.4962230000000001
 30
0.999999
 11
3.3562829999999999
 21
2.5118480000000001
 31
0.999999
  0
LINE
  5
366
  8
0
 39
0.999999
 10
3.3562829999999999
 20
2.5118480000000001
 30
0.999999
 11
3.4344079999999999
 21
2.5118480000000001
 31
0.999999
  0
LINE
  5
367
  8
0
 39
0.999999
 10
3.4344079999999999
 20
2.5118480000000001
 30
0.999999
 11
3.4500329999999999
 21
2.4962230000000001
 31
0.999999
  0
LINE
  5
368
  8
0
 39
0.999999
 10
3.4500329999999999
 20
2.4962230000000001
 30
0.999999
 11
3.4500329999999999
 21
2.4493480000000001
 31
0.999999
  0
LINE
  5
369
  8
0
 39
0.999999
 10
3.4500329999999999
 20
2.4493480000000001
 30
0.999999
 11
3.4344079999999999
 21
2.4337230000000001
 31
0.999999
  0
LINE
  5
36A
  8
0
 39
0.999999
 10
3.3562829999999999
 20
2.4337230000000001
 30
0.999999
 11
3.3406579999999999
 21
2.4180980000000001
 31
0.999999
  0
LINE
  5
36B
  8
0
 39
0.999999
 10
3.3406579999999999
 20
2.4180980000000001
 30
0.999999
 11
3.3406579999999999
 21
2.3712230000000001
 31
0.999999
  0
LINE
  5
36C
  8
0
 39
0.999999
 10
3.4969079999999999
 20
2.379035
 30
0.999999
 11
3.5203449999999989
 21
2.3555980000000001
 31
0.999999
  0
LINE
  5
36D
  8
0
 39
0.999999
 10
3.5203449999999989
 20
2.3555980000000001
 30
0.999999
 11
3.5828449999999989
 21
2.3555980000000001
 31
0.999999
  0
LINE
  5
36E
  8
0
 39
0.999999
 10
3.5828449999999989
 20
2.3555980000000001
 30
0.999999
 11
3.6062829999999999
 21
2.379035
 31
0.999999
  0
LINE
  5
36F
  8
0
 39
0.999999
 10
3.6062829999999999
 20
2.379035
 30
0.999999
 11
3.6062829999999999
 21
2.48841
 31
0.999999
  0
LINE
  5
370
  8
0
 39
0.999999
 10
3.6062829999999999
 20
2.48841
 30
0.999999
 11
3.5828449999999989
 21
2.5118480000000001
 31
0.999999
  0
LINE
  5
371
  8
0
 39
0.999999
 10
3.5828449999999989
 20
2.5118480000000001
 30
0.999999
 11
3.5203449999999989
 21
2.5118480000000001
 31
0.999999
  0
LINE
  5
372
  8
0
 39
0.999999
 10
3.5203449999999989
 20
2.5118480000000001
 30
0.999999
 11
3.4969079999999999
 21
2.48841
 31
0.999999
  0
LINE
  5
373
  8
0
 39
0.999999
 10
3.4969079999999999
 20
2.48841
 30
0.999999
 11
3.4969079999999999
 21
2.379035
 31
0.999999
  0
LINE
  5
374
  8
0
 10
-1.636719
 20
1.734400999999999
 30
0.0
 11
-1.636719
 21
1.890650999999999
 31
0.0
  0
LINE
  5
375
  8
0
 10
-1.636719
 20
1.890650999999999
 30
0.0
 11
-1.5507809999999991
 21
1.890650999999999
 31
0.0
  0
LINE
  5
376
  8
0
 10
-1.5507809999999991
 20
1.890650999999999
 30
0.0
 11
-1.527344
 21
1.8672129999999989
 31
0.0
  0
LINE
  5
377
  8
0
 10
-1.527344
 20
1.8672129999999989
 30
0.0
 11
-1.527344
 21
1.8359629999999989
 31
0.0
  0
LINE
  5
378
  8
0
 10
-1.527344
 20
1.8359629999999989
 30
0.0
 11
-1.5507809999999991
 21
1.812525999999999
 31
0.0
  0
LINE
  5
379
  8
0
 10
-1.5507809999999991
 20
1.812525999999999
 30
0.0
 11
-1.636719
 21
1.812525999999999
 31
0.0
  0
LINE
  5
37A
  8
0
 10
-1.371094
 20
1.8672129999999989
 30
0.0
 11
-1.3945309999999991
 21
1.890650999999999
 31
0.0
  0
LINE
  5
37B
  8
0
 10
-1.3945309999999991
 20
1.890650999999999
 30
0.0
 11
-1.4570309999999991
 21
1.890650999999999
 31
0.0
  0
LINE
  5
37C
  8
0
 10
-1.4570309999999991
 20
1.890650999999999
 30
0.0
 11
-1.480469
 21
1.8672129999999989
 31
0.0
  0
LINE
  5
37D
  8
0
 10
-1.480469
 20
1.8672129999999989
 30
0.0
 11
-1.480469
 21
1.757838
 31
0.0
  0
LINE
  5
37E
  8
0
 10
-1.480469
 20
1.757838
 30
0.0
 11
-1.4570309999999991
 21
1.734400999999999
 31
0.0
  0
LINE
  5
37F
  8
0
 10
-1.4570309999999991
 20
1.734400999999999
 30
0.0
 11
-1.3945309999999991
 21
1.734400999999999
 31
0.0
  0
LINE
  5
380
  8
0
 10
-1.3945309999999991
 20
1.734400999999999
 30
0.0
 11
-1.371094
 21
1.757838
 31
0.0
  0
LINE
  5
381
  8
0
 10
-1.3320309999999991
 20
1.875025999999999
 30
0.0
 11
-1.3164059999999991
 21
1.890650999999999
 31
0.0
  0
LINE
  5
382
  8
0
 10
-1.3164059999999991
 20
1.890650999999999
 30
0.0
 11
-1.3164059999999991
 21
1.734400999999999
 31
0.0
  0
LINE
  5
383
  8
0
 10
-1.3320309999999991
 20
1.734400999999999
 30
0.0
 11
-1.3007809999999991
 21
1.734400999999999
 31
0.0
  0
LINE
  5
384
  8
0
 10
-1.261719
 20
1.8672129999999989
 30
0.0
 11
-1.2382809999999991
 21
1.890650999999999
 31
0.0
  0
LINE
  5
385
  8
0
 10
-1.2382809999999991
 20
1.890650999999999
 30
0.0
 11
-1.1757809999999991
 21
1.890650999999999
 31
0.0
  0
LINE
  5
386
  8
0
 10
-1.1757809999999991
 20
1.890650999999999
 30
0.0
 11
-1.152344
 21
1.8672129999999989
 31
0.0
  0
LINE
  5
387
  8
0
 10
-1.152344
 20
1.8672129999999989
 30
0.0
 11
-1.152344
 21
1.8359629999999989
 31
0.0
  0
LINE
  5
388
  8
0
 10
-1.152344
 20
1.8359629999999989
 30
0.0
 11
-1.261719
 21
1.789088
 31
0.0
  0
LINE
  5
389
  8
0
 10
-1.261719
 20
1.789088
 30
0.0
 11
-1.261719
 21
1.734400999999999
 31
0.0
  0
LINE
  5
38A
  8
0
 10
-1.261719
 20
1.734400999999999
 30
0.0
 11
-1.152344
 21
1.734400999999999
 31
0.0
  0
LINE
  5
38B
  8
0
 10
-1.105469
 20
1.890650999999999
 30
0.0
 11
-1.105469
 21
1.734400999999999
 31
0.0
  0
LINE
  5
38C
  8
0
 10
-1.105469
 20
1.734400999999999
 30
0.0
 11
-0.996094
 21
1.734400999999999
 31
0.0
  0
LINE
  5
38D
  8
0
 39
0.999999
 10
-0.076687
 20
1.7271659999999991
 30
0.999999
 11
-0.076687
 21
1.734977999999999
 31
0.999999
  0
LINE
  5
38E
  8
0
 39
0.999999
 10
0.056125
 20
1.7271659999999991
 30
0.999999
 11
0.079563
 21
1.828727999999999
 31
0.999999
  0
LINE
  5
38F
  8
0
 39
0.999999
 10
0.079563
 20
1.828727999999999
 30
0.999999
 11
0.079563
 21
1.859977999999999
 31
0.999999
  0
LINE
  5
390
  8
0
 39
0.999999
 10
0.079563
 20
1.859977999999999
 30
0.999999
 11
0.056125
 21
1.883416
 31
0.999999
  0
LINE
  5
391
  8
0
 39
0.999999
 10
0.056125
 20
1.883416
 30
0.999999
 11
-0.006375
 21
1.883416
 31
0.999999
  0
LINE
  5
392
  8
0
 39
0.999999
 10
-0.006375
 20
1.883416
 30
0.999999
 11
-0.029812
 21
1.859977999999999
 31
0.999999
  0
LINE
  5
393
  8
0
 39
0.999999
 10
-0.029812
 20
1.859977999999999
 30
0.999999
 11
-0.029812
 21
1.828727999999999
 31
0.999999
  0
LINE
  5
394
  8
0
 39
0.999999
 10
-0.029812
 20
1.828727999999999
 30
0.999999
 11
-0.006375
 21
1.805291
 31
0.999999
  0
LINE
  5
395
  8
0
 39
0.999999
 10
-0.006375
 20
1.805291
 30
0.999999
 11
0.074154
 21
1.805291
 31
0.999999
  0
LINE
  5
396
  8
0
 39
0.999999
 10
0.235813
 20
1.883416
 30
0.999999
 11
0.126438
 21
1.883416
 31
0.999999
  0
LINE
  5
397
  8
0
 39
0.999999
 10
0.126438
 20
1.883416
 30
0.999999
 11
0.126438
 21
1.820916
 31
0.999999
  0
LINE
  5
398
  8
0
 39
0.999999
 10
0.126438
 20
1.820916
 30
0.999999
 11
0.212375
 21
1.820916
 31
0.999999
  0
LINE
  5
399
  8
0
 39
0.999999
 10
0.212375
 20
1.820916
 30
0.999999
 11
0.235813
 21
1.797477999999999
 31
0.999999
  0
LINE
  5
39A
  8
0
 39
0.999999
 10
0.235813
 20
1.797477999999999
 30
0.999999
 11
0.235813
 21
1.750602999999999
 31
0.999999
  0
LINE
  5
39B
  8
0
 39
0.999999
 10
0.235813
 20
1.750602999999999
 30
0.999999
 11
0.212375
 21
1.7271659999999991
 31
0.999999
  0
LINE
  5
39C
  8
0
 39
0.999999
 10
0.212375
 20
1.7271659999999991
 30
0.999999
 11
0.149875
 21
1.7271659999999991
 31
0.999999
  0
LINE
  5
39D
  8
0
 39
0.999999
 10
0.149875
 20
1.7271659999999991
 30
0.999999
 11
0.126438
 21
1.750602999999999
 31
0.999999
  0
LINE
  5
39E
  8
0
 39
0.999999
 10
0.282688
 20
1.7427909999999991
 30
0.999999
 11
0.298313
 21
1.7271659999999991
 31
0.999999
  0
LINE
  5
39F
  8
0
 39
0.999999
 10
0.298313
 20
1.7271659999999991
 30
0.999999
 11
0.376438
 21
1.7271659999999991
 31
0.999999
  0
LINE
  5
3A0
  8
0
 39
0.999999
 10
0.376438
 20
1.7271659999999991
 30
0.999999
 11
0.392063
 21
1.7427909999999991
 31
0.999999
  0
LINE
  5
3A1
  8
0
 39
0.999999
 10
0.392063
 20
1.7427909999999991
 30
0.999999
 11
0.392063
 21
1.7896659999999991
 31
0.999999
  0
LINE
  5
3A2
  8
0
 39
0.999999
 10
0.392063
 20
1.7896659999999991
 30
0.999999
 11
0.376438
 21
1.805291
 31
0.999999
  0
LINE
  5
3A3
  8
0
 39
0.999999
 10
0.376438
 20
1.805291
 30
0.999999
 11
0.298313
 21
1.805291
 31
0.999999
  0
LINE
  5
3A4
  8
0
 39
0.999999
 10
0.298313
 20
1.805291
 30
0.999999
 11
0.282688
 21
1.820916
 31
0.999999
  0
LINE
  5
3A5
  8
0
 39
0.999999
 10
0.282688
 20
1.820916
 30
0.999999
 11
0.282688
 21
1.867791
 31
0.999999
  0
LINE
  5
3A6
  8
0
 39
0.999999
 10
0.282688
 20
1.867791
 30
0.999999
 11
0.298313
 21
1.883416
 31
0.999999
  0
LINE
  5
3A7
  8
0
 39
0.999999
 10
0.298313
 20
1.883416
 30
0.999999
 11
0.376438
 21
1.883416
 31
0.999999
  0
LINE
  5
3A8
  8
0
 39
0.999999
 10
0.376438
 20
1.883416
 30
0.999999
 11
0.392063
 21
1.867791
 31
0.999999
  0
LINE
  5
3A9
  8
0
 39
0.999999
 10
0.392063
 20
1.867791
 30
0.999999
 11
0.392063
 21
1.820916
 31
0.999999
  0
LINE
  5
3AA
  8
0
 39
0.999999
 10
0.392063
 20
1.820916
 30
0.999999
 11
0.376438
 21
1.805291
 31
0.999999
  0
LINE
  5
3AB
  8
0
 39
0.999999
 10
0.298313
 20
1.805291
 30
0.999999
 11
0.282688
 21
1.7896659999999991
 31
0.999999
  0
LINE
  5
3AC
  8
0
 39
0.999999
 10
0.282688
 20
1.7896659999999991
 30
0.999999
 11
0.282688
 21
1.7427909999999991
 31
0.999999
  0
LINE
  5
3AD
  8
0
 39
0.999999
 10
1.5587029999999999
 20
1.7335320000000001
 30
0.999999
 11
1.5587029999999999
 21
1.7413439999999989
 31
0.999999
  0
LINE
  5
3AE
  8
0
 39
0.999999
 10
1.6055779999999999
 20
1.8663439999999989
 30
0.999999
 11
1.629014999999999
 21
1.8897820000000001
 31
0.999999
  0
LINE
  5
3AF
  8
0
 39
0.999999
 10
1.629014999999999
 20
1.8897820000000001
 30
0.999999
 11
1.6915150000000001
 21
1.8897820000000001
 31
0.999999
  0
LINE
  5
3B0
  8
0
 39
0.999999
 10
1.6915150000000001
 20
1.8897820000000001
 30
0.999999
 11
1.7149529999999991
 21
1.8663439999999989
 31
0.999999
  0
LINE
  5
3B1
  8
0
 39
0.999999
 10
1.7149529999999991
 20
1.8663439999999989
 30
0.999999
 11
1.7149529999999991
 21
1.8350939999999989
 31
0.999999
  0
LINE
  5
3B2
  8
0
 39
0.999999
 10
1.7149529999999991
 20
1.8350939999999989
 30
0.999999
 11
1.6915150000000001
 21
1.8116570000000001
 31
0.999999
  0
LINE
  5
3B3
  8
0
 39
0.999999
 10
1.6915150000000001
 20
1.8116570000000001
 30
0.999999
 11
1.6446400000000001
 21
1.8116570000000001
 31
0.999999
  0
LINE
  5
3B4
  8
0
 39
0.999999
 10
1.6915150000000001
 20
1.8116570000000001
 30
0.999999
 11
1.7149529999999991
 21
1.7882189999999989
 31
0.999999
  0
LINE
  5
3B5
  8
0
 39
0.999999
 10
1.7149529999999991
 20
1.7882189999999989
 30
0.999999
 11
1.7149529999999991
 21
1.7569689999999989
 31
0.999999
  0
LINE
  5
3B6
  8
0
 39
0.999999
 10
1.7149529999999991
 20
1.7569689999999989
 30
0.999999
 11
1.6915150000000001
 21
1.7335320000000001
 31
0.999999
  0
LINE
  5
3B7
  8
0
 39
0.999999
 10
1.6915150000000001
 20
1.7335320000000001
 30
0.999999
 11
1.629014999999999
 21
1.7335320000000001
 31
0.999999
  0
LINE
  5
3B8
  8
0
 39
0.999999
 10
1.629014999999999
 20
1.7335320000000001
 30
0.999999
 11
1.6055779999999999
 21
1.7569689999999989
 31
0.999999
  0
LINE
  5
3B9
  8
0
 39
0.999999
 10
1.8555779999999991
 20
1.7335320000000001
 30
0.999999
 11
1.8555779999999991
 21
1.8897820000000001
 31
0.999999
  0
LINE
  5
3BA
  8
0
 39
0.999999
 10
1.8555779999999991
 20
1.8897820000000001
 30
0.999999
 11
1.7618279999999991
 21
1.8038439999999989
 31
0.999999
  0
LINE
  5
3BB
  8
0
 39
0.999999
 10
1.7618279999999991
 20
1.8038439999999989
 30
0.999999
 11
1.8712029999999991
 21
1.8038439999999989
 31
0.999999
  0
LINE
  5
3BC
  8
0
 39
0.999999
 10
1.9180779999999991
 20
1.7569689999999989
 30
0.999999
 11
1.9415150000000001
 21
1.7335320000000001
 31
0.999999
  0
LINE
  5
3BD
  8
0
 39
0.999999
 10
1.9415150000000001
 20
1.7335320000000001
 30
0.999999
 11
2.0040149999999999
 21
1.7335320000000001
 31
0.999999
  0
LINE
  5
3BE
  8
0
 39
0.999999
 10
2.0040149999999999
 20
1.7335320000000001
 30
0.999999
 11
2.0274529999999991
 21
1.7569689999999989
 31
0.999999
  0
LINE
  5
3BF
  8
0
 39
0.999999
 10
2.0274529999999991
 20
1.7569689999999989
 30
0.999999
 11
2.0274529999999991
 21
1.8663439999999989
 31
0.999999
  0
LINE
  5
3C0
  8
0
 39
0.999999
 10
2.0274529999999991
 20
1.8663439999999989
 30
0.999999
 11
2.0040149999999999
 21
1.8897820000000001
 31
0.999999
  0
LINE
  5
3C1
  8
0
 39
0.999999
 10
2.0040149999999999
 20
1.8897820000000001
 30
0.999999
 11
1.9415150000000001
 21
1.8897820000000001
 31
0.999999
  0
LINE
  5
3C2
  8
0
 39
0.999999
 10
1.9415150000000001
 20
1.8897820000000001
 30
0.999999
 11
1.9180779999999991
 21
1.8663439999999989
 31
0.999999
  0
LINE
  5
3C3
  8
0
 39
0.999999
 10
1.9180779999999991
 20
1.8663439999999989
 30
0.999999
 11
1.9180779999999991
 21
1.7569689999999989
 31
0.999999
  0
LINE
  5
3C4
  8
0
 39
0.999999
 10
3.179346999999999
 20
1.7302770000000001
 30
0.999999
 11
3.179346999999999
 21
1.7380899999999999
 31
0.999999
  0
LINE
  5
3C5
  8
0
 39
0.999999
 10
3.226221999999999
 20
1.8630899999999999
 30
0.999999
 11
3.2496599999999991
 21
1.8865270000000001
 31
0.999999
  0
LINE
  5
3C6
  8
0
 39
0.999999
 10
3.2496599999999991
 20
1.8865270000000001
 30
0.999999
 11
3.3121599999999991
 21
1.8865270000000001
 31
0.999999
  0
LINE
  5
3C7
  8
0
 39
0.999999
 10
3.3121599999999991
 20
1.8865270000000001
 30
0.999999
 11
3.335596999999999
 21
1.8630899999999999
 31
0.999999
  0
LINE
  5
3C8
  8
0
 39
0.999999
 10
3.335596999999999
 20
1.8630899999999999
 30
0.999999
 11
3.335596999999999
 21
1.8318399999999999
 31
0.999999
  0
LINE
  5
3C9
  8
0
 39
0.999999
 10
3.335596999999999
 20
1.8318399999999999
 30
0.999999
 11
3.226221999999999
 21
1.7849649999999999
 31
0.999999
  0
LINE
  5
3CA
  8
0
 39
0.999999
 10
3.226221999999999
 20
1.7849649999999999
 30
0.999999
 11
3.226221999999999
 21
1.7302770000000001
 31
0.999999
  0
LINE
  5
3CB
  8
0
 39
0.999999
 10
3.226221999999999
 20
1.7302770000000001
 30
0.999999
 11
3.335596999999999
 21
1.7302770000000001
 31
0.999999
  0
LINE
  5
3CC
  8
0
 39
0.999999
 10
3.476221999999999
 20
1.7302770000000001
 30
0.999999
 11
3.476221999999999
 21
1.8865270000000001
 31
0.999999
  0
LINE
  5
3CD
  8
0
 39
0.999999
 10
3.476221999999999
 20
1.8865270000000001
 30
0.999999
 11
3.382471999999999
 21
1.8005899999999999
 31
0.999999
  0
LINE
  5
3CE
  8
0
 39
0.999999
 10
3.382471999999999
 20
1.8005899999999999
 30
0.999999
 11
3.491846999999999
 21
1.8005899999999999
 31
0.999999
  0
LINE
  5
3CF
  8
0
 39
0.999999
 10
3.648096999999999
 20
1.8865270000000001
 30
0.999999
 11
3.538721999999999
 21
1.8865270000000001
 31
0.999999
  0
LINE
  5
3D0
  8
0
 39
0.999999
 10
3.538721999999999
 20
1.8865270000000001
 30
0.999999
 11
3.538721999999999
 21
1.8240270000000001
 31
0.999999
  0
LINE
  5
3D1
  8
0
 39
0.999999
 10
3.538721999999999
 20
1.8240270000000001
 30
0.999999
 11
3.6246599999999991
 21
1.8240270000000001
 31
0.999999
  0
LINE
  5
3D2
  8
0
 39
0.999999
 10
3.6246599999999991
 20
1.8240270000000001
 30
0.999999
 11
3.648096999999999
 21
1.8005899999999999
 31
0.999999
  0
LINE
  5
3D3
  8
0
 39
0.999999
 10
3.648096999999999
 20
1.8005899999999999
 30
0.999999
 11
3.648096999999999
 21
1.7537149999999999
 31
0.999999
  0
LINE
  5
3D4
  8
0
 39
0.999999
 10
3.648096999999999
 20
1.7537149999999999
 30
0.999999
 11
3.6246599999999991
 21
1.7302770000000001
 31
0.999999
  0
LINE
  5
3D5
  8
0
 39
0.999999
 10
3.6246599999999991
 20
1.7302770000000001
 30
0.999999
 11
3.5621599999999991
 21
1.7302770000000001
 31
0.999999
  0
LINE
  5
3D6
  8
0
 39
0.999999
 10
3.5621599999999991
 20
1.7302770000000001
 30
0.999999
 11
3.538721999999999
 21
1.7537149999999999
 31
0.999999
  0
LINE
  5
3D7
  8
0
 10
-1.636719
 20
1.1094010000000001
 30
0.0
 11
-1.636719
 21
1.2656510000000001
 31
0.0
  0
LINE
  5
3D8
  8
0
 10
-1.636719
 20
1.2656510000000001
 30
0.0
 11
-1.5507809999999991
 21
1.2656510000000001
 31
0.0
  0
LINE
  5
3D9
  8
0
 10
-1.5507809999999991
 20
1.2656510000000001
 30
0.0
 11
-1.527344
 21
1.242213
 31
0.0
  0
LINE
  5
3DA
  8
0
 10
-1.527344
 20
1.242213
 30
0.0
 11
-1.527344
 21
1.210963
 31
0.0
  0
LINE
  5
3DB
  8
0
 10
-1.527344
 20
1.210963
 30
0.0
 11
-1.5507809999999991
 21
1.1875260000000001
 31
0.0
  0
LINE
  5
3DC
  8
0
 10
-1.5507809999999991
 20
1.1875260000000001
 30
0.0
 11
-1.636719
 21
1.1875260000000001
 31
0.0
  0
LINE
  5
3DD
  8
0
 10
-1.371094
 20
1.242213
 30
0.0
 11
-1.3945309999999991
 21
1.2656510000000001
 31
0.0
  0
LINE
  5
3DE
  8
0
 10
-1.3945309999999991
 20
1.2656510000000001
 30
0.0
 11
-1.4570309999999991
 21
1.2656510000000001
 31
0.0
  0
LINE
  5
3DF
  8
0
 10
-1.4570309999999991
 20
1.2656510000000001
 30
0.0
 11
-1.480469
 21
1.242213
 31
0.0
  0
LINE
  5
3E0
  8
0
 10
-1.480469
 20
1.242213
 30
0.0
 11
-1.480469
 21
1.132838
 31
0.0
  0
LINE
  5
3E1
  8
0
 10
-1.480469
 20
1.132838
 30
0.0
 11
-1.4570309999999991
 21
1.1094010000000001
 31
0.0
  0
LINE
  5
3E2
  8
0
 10
-1.4570309999999991
 20
1.1094010000000001
 30
0.0
 11
-1.3945309999999991
 21
1.1094010000000001
 31
0.0
  0
LINE
  5
3E3
  8
0
 10
-1.3945309999999991
 20
1.1094010000000001
 30
0.0
 11
-1.371094
 21
1.132838
 31
0.0
  0
LINE
  5
3E4
  8
0
 10
-1.3320309999999991
 20
1.2500260000000001
 30
0.0
 11
-1.3164059999999991
 21
1.2656510000000001
 31
0.0
  0
LINE
  5
3E5
  8
0
 10
-1.3164059999999991
 20
1.2656510000000001
 30
0.0
 11
-1.3164059999999991
 21
1.1094010000000001
 31
0.0
  0
LINE
  5
3E6
  8
0
 10
-1.3320309999999991
 20
1.1094010000000001
 30
0.0
 11
-1.3007809999999991
 21
1.1094010000000001
 31
0.0
  0
LINE
  5
3E7
  8
0
 10
-1.261719
 20
1.242213
 30
0.0
 11
-1.2382809999999991
 21
1.2656510000000001
 31
0.0
  0
LINE
  5
3E8
  8
0
 10
-1.2382809999999991
 20
1.2656510000000001
 30
0.0
 11
-1.1757809999999991
 21
1.2656510000000001
 31
0.0
  0
LINE
  5
3E9
  8
0
 10
-1.1757809999999991
 20
1.2656510000000001
 30
0.0
 11
-1.152344
 21
1.242213
 31
0.0
  0
LINE
  5
3EA
  8
0
 10
-1.152344
 20
1.242213
 30
0.0
 11
-1.152344
 21
1.210963
 31
0.0
  0
LINE
  5
3EB
  8
0
 10
-1.152344
 20
1.210963
 30
0.0
 11
-1.1757809999999991
 21
1.1875260000000001
 31
0.0
  0
LINE
  5
3EC
  8
0
 10
-1.1757809999999991
 20
1.1875260000000001
 30
0.0
 11
-1.2226559999999991
 21
1.1875260000000001
 31
0.0
  0
LINE
  5
3ED
  8
0
 10
-1.1757809999999991
 20
1.1875260000000001
 30
0.0
 11
-1.152344
 21
1.164088
 31
0.0
  0
LINE
  5
3EE
  8
0
 10
-1.152344
 20
1.164088
 30
0.0
 11
-1.152344
 21
1.132838
 31
0.0
  0
LINE
  5
3EF
  8
0
 10
-1.152344
 20
1.132838
 30
0.0
 11
-1.1757809999999991
 21
1.1094010000000001
 31
0.0
  0
LINE
  5
3F0
  8
0
 10
-1.1757809999999991
 20
1.1094010000000001
 30
0.0
 11
-1.2382809999999991
 21
1.1094010000000001
 31
0.0
  0
LINE
  5
3F1
  8
0
 10
-1.2382809999999991
 20
1.1094010000000001
 30
0.0
 11
-1.261719
 21
1.132838
 31
0.0
  0
LINE
  5
3F2
  8
0
 39
0.999999
 10
-0.083083
 20
1.2460109999999991
 30
0.999999
 11
-0.067458
 21
1.2616359999999991
 31
0.999999
  0
LINE
  5
3F3
  8
0
 39
0.999999
 10
-0.067458
 20
1.2616359999999991
 30
0.999999
 11
-0.067458
 21
1.1053859999999991
 31
0.999999
  0
LINE
  5
3F4
  8
0
 39
0.999999
 10
-0.083083
 20
1.1053859999999991
 30
0.999999
 11
-0.051833
 21
1.1053859999999991
 31
0.999999
  0
LINE
  5
3F5
  8
0
 39
0.999999
 10
-0.012771
 20
1.1053859999999991
 30
0.999999
 11
-0.012771
 21
1.113197999999999
 31
0.999999
  0
LINE
  5
3F6
  8
0
 39
0.999999
 10
0.034104
 20
1.128822999999999
 30
0.999999
 11
0.057542
 21
1.1053859999999991
 31
0.999999
  0
LINE
  5
3F7
  8
0
 39
0.999999
 10
0.057542
 20
1.1053859999999991
 30
0.999999
 11
0.120042
 21
1.1053859999999991
 31
0.999999
  0
LINE
  5
3F8
  8
0
 39
0.999999
 10
0.120042
 20
1.1053859999999991
 30
0.999999
 11
0.143479
 21
1.128822999999999
 31
0.999999
  0
LINE
  5
3F9
  8
0
 39
0.999999
 10
0.143479
 20
1.128822999999999
 30
0.999999
 11
0.143479
 21
1.238197999999999
 31
0.999999
  0
LINE
  5
3FA
  8
0
 39
0.999999
 10
0.143479
 20
1.238197999999999
 30
0.999999
 11
0.120042
 21
1.2616359999999991
 31
0.999999
  0
LINE
  5
3FB
  8
0
 39
0.999999
 10
0.120042
 20
1.2616359999999991
 30
0.999999
 11
0.057542
 21
1.2616359999999991
 31
0.999999
  0
LINE
  5
3FC
  8
0
 39
0.999999
 10
0.057542
 20
1.2616359999999991
 30
0.999999
 11
0.034104
 21
1.238197999999999
 31
0.999999
  0
LINE
  5
3FD
  8
0
 39
0.999999
 10
0.034104
 20
1.238197999999999
 30
0.999999
 11
0.034104
 21
1.128822999999999
 31
0.999999
  0
LINE
  5
3FE
  8
0
 39
0.999999
 10
0.276292
 20
1.1053859999999991
 30
0.999999
 11
0.299729
 21
1.206947999999999
 31
0.999999
  0
LINE
  5
3FF
  8
0
 39
0.999999
 10
0.299729
 20
1.206947999999999
 30
0.999999
 11
0.299729
 21
1.238197999999999
 31
0.999999
  0
LINE
  5
400
  8
0
 39
0.999999
 10
0.299729
 20
1.238197999999999
 30
0.999999
 11
0.276292
 21
1.2616359999999991
 31
0.999999
  0
LINE
  5
401
  8
0
 39
0.999999
 10
0.276292
 20
1.2616359999999991
 30
0.999999
 11
0.213792
 21
1.2616359999999991
 31
0.999999
  0
LINE
  5
402
  8
0
 39
0.999999
 10
0.213792
 20
1.2616359999999991
 30
0.999999
 11
0.190354
 21
1.238197999999999
 31
0.999999
  0
LINE
  5
403
  8
0
 39
0.999999
 10
0.190354
 20
1.238197999999999
 30
0.999999
 11
0.190354
 21
1.206947999999999
 31
0.999999
  0
LINE
  5
404
  8
0
 39
0.999999
 10
0.190354
 20
1.206947999999999
 30
0.999999
 11
0.213792
 21
1.1835109999999991
 31
0.999999
  0
LINE
  5
405
  8
0
 39
0.999999
 10
0.213792
 20
1.1835109999999991
 30
0.999999
 11
0.294321
 21
1.1835109999999991
 31
0.999999
  0
LINE
  5
406
  8
0
 39
0.999999
 10
0.346604
 20
1.238197999999999
 30
0.999999
 11
0.370042
 21
1.2616359999999991
 31
0.999999
  0
LINE
  5
407
  8
0
 39
0.999999
 10
0.370042
 20
1.2616359999999991
 30
0.999999
 11
0.432542
 21
1.2616359999999991
 31
0.999999
  0
LINE
  5
408
  8
0
 39
0.999999
 10
0.432542
 20
1.2616359999999991
 30
0.999999
 11
0.4559790000000001
 21
1.238197999999999
 31
0.999999
  0
LINE
  5
409
  8
0
 39
0.999999
 10
0.4559790000000001
 20
1.238197999999999
 30
0.999999
 11
0.4559790000000001
 21
1.206947999999999
 31
0.999999
  0
LINE
  5
40A
  8
0
 39
0.999999
 10
0.4559790000000001
 20
1.206947999999999
 30
0.999999
 11
0.432542
 21
1.1835109999999991
 31
0.999999
  0
LINE
  5
40B
  8
0
 39
0.999999
 10
0.432542
 20
1.1835109999999991
 30
0.999999
 11
0.385667
 21
1.1835109999999991
 31
0.999999
  0
LINE
  5
40C
  8
0
 39
0.999999
 10
0.432542
 20
1.1835109999999991
 30
0.999999
 11
0.4559790000000001
 21
1.160072999999999
 31
0.999999
  0
LINE
  5
40D
  8
0
 39
0.999999
 10
0.4559790000000001
 20
1.160072999999999
 30
0.999999
 11
0.4559790000000001
 21
1.128822999999999
 31
0.999999
  0
LINE
  5
40E
  8
0
 39
0.999999
 10
0.4559790000000001
 20
1.128822999999999
 30
0.999999
 11
0.432542
 21
1.1053859999999991
 31
0.999999
  0
LINE
  5
40F
  8
0
 39
0.999999
 10
0.432542
 20
1.1053859999999991
 30
0.999999
 11
0.370042
 21
1.1053859999999991
 31
0.999999
  0
LINE
  5
410
  8
0
 39
0.999999
 10
0.370042
 20
1.1053859999999991
 30
0.999999
 11
0.346604
 21
1.128822999999999
 31
0.999999
  0
LINE
  5
411
  8
0
 10
1.5622059999999991
 20
1.1061859999999999
 30
0.0
 11
1.5622059999999991
 21
1.113998
 31
0.0
  0
LINE
  5
412
  8
0
 10
1.6090809999999991
 20
1.238998
 30
0.0
 11
1.6325179999999999
 21
1.2624359999999999
 31
0.0
  0
LINE
  5
413
  8
0
 10
1.6325179999999999
 20
1.2624359999999999
 30
0.0
 11
1.6950179999999999
 21
1.2624359999999999
 31
0.0
  0
LINE
  5
414
  8
0
 10
1.6950179999999999
 20
1.2624359999999999
 30
0.0
 11
1.718456
 21
1.238998
 31
0.0
  0
LINE
  5
415
  8
0
 10
1.718456
 20
1.238998
 30
0.0
 11
1.718456
 21
1.207748
 31
0.0
  0
LINE
  5
416
  8
0
 10
1.718456
 20
1.207748
 30
0.0
 11
1.6090809999999991
 21
1.160873
 31
0.0
  0
LINE
  5
417
  8
0
 10
1.6090809999999991
 20
1.160873
 30
0.0
 11
1.6090809999999991
 21
1.1061859999999999
 31
0.0
  0
LINE
  5
418
  8
0
 10
1.6090809999999991
 20
1.1061859999999999
 30
0.0
 11
1.718456
 21
1.1061859999999999
 31
0.0
  0
LINE
  5
419
  8
0
 10
1.765331
 20
1.2468109999999999
 30
0.0
 11
1.765331
 21
1.2624359999999999
 31
0.0
  0
LINE
  5
41A
  8
0
 10
1.765331
 20
1.2624359999999999
 30
0.0
 11
1.874706
 21
1.2624359999999999
 31
0.0
  0
LINE
  5
41B
  8
0
 10
1.874706
 20
1.2624359999999999
 30
0.0
 11
1.874706
 21
1.2468109999999999
 31
0.0
  0
LINE
  5
41C
  8
0
 10
1.874706
 20
1.2468109999999999
 30
0.0
 11
1.8200179999999999
 21
1.1061859999999999
 31
0.0
  0
LINE
  5
41D
  8
0
 10
2.0309560000000002
 20
1.2624359999999999
 30
0.0
 11
1.921581
 21
1.2624359999999999
 31
0.0
  0
LINE
  5
41E
  8
0
 10
1.921581
 20
1.2624359999999999
 30
0.0
 11
1.921581
 21
1.1999359999999999
 31
0.0
  0
LINE
  5
41F
  8
0
 10
1.921581
 20
1.1999359999999999
 30
0.0
 11
2.0075180000000001
 21
1.1999359999999999
 31
0.0
  0
LINE
  5
420
  8
0
 10
2.0075180000000001
 20
1.1999359999999999
 30
0.0
 11
2.0309560000000002
 21
1.176498
 31
0.0
  0
LINE
  5
421
  8
0
 10
2.0309560000000002
 20
1.176498
 30
0.0
 11
2.0309560000000002
 21
1.129623
 31
0.0
  0
LINE
  5
422
  8
0
 10
2.0309560000000002
 20
1.129623
 30
0.0
 11
2.0075180000000001
 21
1.1061859999999999
 31
0.0
  0
LINE
  5
423
  8
0
 10
2.0075180000000001
 20
1.1061859999999999
 30
0.0
 11
1.9450179999999999
 21
1.1061859999999999
 31
0.0
  0
LINE
  5
424
  8
0
 10
1.9450179999999999
 20
1.1061859999999999
 30
0.0
 11
1.921581
 21
1.129623
 31
0.0
  0
LINE
  5
425
  8
0
 39
0.999999
 10
3.2293409999999989
 20
1.106986
 30
0.999999
 11
3.2293409999999989
 21
1.1147979999999991
 31
0.999999
  0
LINE
  5
426
  8
0
 39
0.999999
 10
3.2684039999999999
 20
1.247611
 30
0.999999
 11
3.2840289999999999
 21
1.263236
 31
0.999999
  0
LINE
  5
427
  8
0
 39
0.999999
 10
3.2840289999999999
 20
1.263236
 30
0.999999
 11
3.2840289999999999
 21
1.106986
 31
0.999999
  0
LINE
  5
428
  8
0
 39
0.999999
 10
3.2684039999999999
 20
1.106986
 30
0.999999
 11
3.2996539999999999
 21
1.106986
 31
0.999999
  0
LINE
  5
429
  8
0
 39
0.999999
 10
3.3387159999999998
 20
1.122611
 30
0.999999
 11
3.3543409999999998
 21
1.106986
 31
0.999999
  0
LINE
  5
42A
  8
0
 39
0.999999
 10
3.3543409999999998
 20
1.106986
 30
0.999999
 11
3.4324659999999998
 21
1.106986
 31
0.999999
  0
LINE
  5
42B
  8
0
 39
0.999999
 10
3.4324659999999998
 20
1.106986
 30
0.999999
 11
3.4480909999999998
 21
1.122611
 31
0.999999
  0
LINE
  5
42C
  8
0
 39
0.999999
 10
3.4480909999999998
 20
1.122611
 30
0.999999
 11
3.4480909999999998
 21
1.169486
 31
0.999999
  0
LINE
  5
42D
  8
0
 39
0.999999
 10
3.4480909999999998
 20
1.169486
 30
0.999999
 11
3.4324659999999998
 21
1.185111
 31
0.999999
  0
LINE
  5
42E
  8
0
 39
0.999999
 10
3.4324659999999998
 20
1.185111
 30
0.999999
 11
3.3543409999999998
 21
1.185111
 31
0.999999
  0
LINE
  5
42F
  8
0
 39
0.999999
 10
3.3543409999999998
 20
1.185111
 30
0.999999
 11
3.3387159999999998
 21
1.200736
 31
0.999999
  0
LINE
  5
430
  8
0
 39
0.999999
 10
3.3387159999999998
 20
1.200736
 30
0.999999
 11
3.3387159999999998
 21
1.247611
 31
0.999999
  0
LINE
  5
431
  8
0
 39
0.999999
 10
3.3387159999999998
 20
1.247611
 30
0.999999
 11
3.3543409999999998
 21
1.263236
 31
0.999999
  0
LINE
  5
432
  8
0
 39
0.999999
 10
3.3543409999999998
 20
1.263236
 30
0.999999
 11
3.4324659999999998
 21
1.263236
 31
0.999999
  0
LINE
  5
433
  8
0
 39
0.999999
 10
3.4324659999999998
 20
1.263236
 30
0.999999
 11
3.4480909999999998
 21
1.247611
 31
0.999999
  0
LINE
  5
434
  8
0
 39
0.999999
 10
3.4480909999999998
 20
1.247611
 30
0.999999
 11
3.4480909999999998
 21
1.200736
 31
0.999999
  0
LINE
  5
435
  8
0
 39
0.999999
 10
3.4480909999999998
 20
1.200736
 30
0.999999
 11
3.4324659999999998
 21
1.185111
 31
0.999999
  0
LINE
  5
436
  8
0
 39
0.999999
 10
3.3543409999999998
 20
1.185111
 30
0.999999
 11
3.3387159999999998
 21
1.169486
 31
0.999999
  0
LINE
  5
437
  8
0
 39
0.999999
 10
3.3387159999999998
 20
1.169486
 30
0.999999
 11
3.3387159999999998
 21
1.122611
 31
0.999999
  0
LINE
  5
438
  8
0
 39
0.999999
 10
3.4949659999999998
 20
1.1304229999999991
 30
0.999999
 11
3.5184039999999999
 21
1.106986
 31
0.999999
  0
LINE
  5
439
  8
0
 39
0.999999
 10
3.5184039999999999
 20
1.106986
 30
0.999999
 11
3.5809039999999999
 21
1.106986
 31
0.999999
  0
LINE
  5
43A
  8
0
 39
0.999999
 10
3.5809039999999999
 20
1.106986
 30
0.999999
 11
3.6043409999999998
 21
1.1304229999999991
 31
0.999999
  0
LINE
  5
43B
  8
0
 39
0.999999
 10
3.6043409999999998
 20
1.1304229999999991
 30
0.999999
 11
3.6043409999999998
 21
1.2397979999999991
 31
0.999999
  0
LINE
  5
43C
  8
0
 39
0.999999
 10
3.6043409999999998
 20
1.2397979999999991
 30
0.999999
 11
3.5809039999999999
 21
1.263236
 31
0.999999
  0
LINE
  5
43D
  8
0
 39
0.999999
 10
3.5809039999999999
 20
1.263236
 30
0.999999
 11
3.5184039999999999
 21
1.263236
 31
0.999999
  0
LINE
  5
43E
  8
0
 39
0.999999
 10
3.5184039999999999
 20
1.263236
 30
0.999999
 11
3.4949659999999998
 21
1.2397979999999991
 31
0.999999
  0
LINE
  5
43F
  8
0
 39
0.999999
 10
3.4949659999999998
 20
1.2397979999999991
 30
0.999999
 11
3.4949659999999998
 21
1.1304229999999991
 31
0.999999
  0
LINE
  5
440
  8
0
 10
-1.636719
 20
0.484401
 30
0.0
 11
-1.636719
 21
0.640651
 31
0.0
  0
LINE
  5
441
  8
0
 10
-1.636719
 20
0.640651
 30
0.0
 11
-1.5507809999999991
 21
0.640651
 31
0.0
  0
LINE
  5
442
  8
0
 10
-1.5507809999999991
 20
0.640651
 30
0.0
 11
-1.527344
 21
0.6172130000000001
 31
0.0
  0
LINE
  5
443
  8
0
 10
-1.527344
 20
0.6172130000000001
 30
0.0
 11
-1.527344
 21
0.5859630000000001
 31
0.0
  0
LINE
  5
444
  8
0
 10
-1.527344
 20
0.5859630000000001
 30
0.0
 11
-1.5507809999999991
 21
0.562526
 31
0.0
  0
LINE
  5
445
  8
0
 10
-1.5507809999999991
 20
0.562526
 30
0.0
 11
-1.636719
 21
0.562526
 31
0.0
  0
LINE
  5
446
  8
0
 10
-1.371094
 20
0.6172130000000001
 30
0.0
 11
-1.3945309999999991
 21
0.640651
 31
0.0
  0
LINE
  5
447
  8
0
 10
-1.3945309999999991
 20
0.640651
 30
0.0
 11
-1.4570309999999991
 21
0.640651
 31
0.0
  0
LINE
  5
448
  8
0
 10
-1.4570309999999991
 20
0.640651
 30
0.0
 11
-1.480469
 21
0.6172130000000001
 31
0.0
  0
LINE
  5
449
  8
0
 10
-1.480469
 20
0.6172130000000001
 30
0.0
 11
-1.480469
 21
0.5078380000000001
 31
0.0
  0
LINE
  5
44A
  8
0
 10
-1.480469
 20
0.5078380000000001
 30
0.0
 11
-1.4570309999999991
 21
0.484401
 31
0.0
  0
LINE
  5
44B
  8
0
 10
-1.4570309999999991
 20
0.484401
 30
0.0
 11
-1.3945309999999991
 21
0.484401
 31
0.0
  0
LINE
  5
44C
  8
0
 10
-1.3945309999999991
 20
0.484401
 30
0.0
 11
-1.371094
 21
0.5078380000000001
 31
0.0
  0
LINE
  5
44D
  8
0
 10
-1.3320309999999991
 20
0.625026
 30
0.0
 11
-1.3164059999999991
 21
0.640651
 31
0.0
  0
LINE
  5
44E
  8
0
 10
-1.3164059999999991
 20
0.640651
 30
0.0
 11
-1.3164059999999991
 21
0.484401
 31
0.0
  0
LINE
  5
44F
  8
0
 10
-1.3320309999999991
 20
0.484401
 30
0.0
 11
-1.3007809999999991
 21
0.484401
 31
0.0
  0
LINE
  5
450
  8
0
 10
-1.261719
 20
0.6172130000000001
 30
0.0
 11
-1.2382809999999991
 21
0.640651
 31
0.0
  0
LINE
  5
451
  8
0
 10
-1.2382809999999991
 20
0.640651
 30
0.0
 11
-1.1757809999999991
 21
0.640651
 31
0.0
  0
LINE
  5
452
  8
0
 10
-1.1757809999999991
 20
0.640651
 30
0.0
 11
-1.152344
 21
0.6172130000000001
 31
0.0
  0
LINE
  5
453
  8
0
 10
-1.152344
 20
0.6172130000000001
 30
0.0
 11
-1.152344
 21
0.5859630000000001
 31
0.0
  0
LINE
  5
454
  8
0
 10
-1.152344
 20
0.5859630000000001
 30
0.0
 11
-1.1757809999999991
 21
0.562526
 31
0.0
  0
LINE
  5
455
  8
0
 10
-1.1757809999999991
 20
0.562526
 30
0.0
 11
-1.2226559999999991
 21
0.562526
 31
0.0
  0
LINE
  5
456
  8
0
 10
-1.1757809999999991
 20
0.562526
 30
0.0
 11
-1.152344
 21
0.5390880000000001
 31
0.0
  0
LINE
  5
457
  8
0
 10
-1.152344
 20
0.5390880000000001
 30
0.0
 11
-1.152344
 21
0.5078380000000001
 31
0.0
  0
LINE
  5
458
  8
0
 10
-1.152344
 20
0.5078380000000001
 30
0.0
 11
-1.1757809999999991
 21
0.484401
 31
0.0
  0
LINE
  5
459
  8
0
 10
-1.1757809999999991
 20
0.484401
 30
0.0
 11
-1.2382809999999991
 21
0.484401
 31
0.0
  0
LINE
  5
45A
  8
0
 10
-1.2382809999999991
 20
0.484401
 30
0.0
 11
-1.261719
 21
0.5078380000000001
 31
0.0
  0
LINE
  5
45B
  8
0
 10
-1.105469
 20
0.640651
 30
0.0
 11
-1.105469
 21
0.484401
 31
0.0
  0
LINE
  5
45C
  8
0
 10
-1.105469
 20
0.484401
 30
0.0
 11
-0.996094
 21
0.484401
 31
0.0
  0
LINE
  5
45D
  8
0
 10
-0.032217
 20
0.6253130000000001
 30
0.0
 11
-0.016592
 21
0.6409380000000001
 31
0.0
  0
LINE
  5
45E
  8
0
 10
-0.016592
 20
0.6409380000000001
 30
0.0
 11
-0.016592
 21
0.4846880000000001
 31
0.0
  0
LINE
  5
45F
  8
0
 10
-0.032217
 20
0.4846880000000001
 30
0.0
 11
-0.000967
 21
0.4846880000000001
 31
0.0
  0
LINE
  5
460
  8
0
 10
0.038095
 20
0.4846880000000001
 30
0.0
 11
0.038095
 21
0.4925010000000001
 31
0.0
  0
LINE
  5
461
  8
0
 10
0.077158
 20
0.6253130000000001
 30
0.0
 11
0.092783
 21
0.6409380000000001
 31
0.0
  0
LINE
  5
462
  8
0
 10
0.092783
 20
0.6409380000000001
 30
0.0
 11
0.092783
 21
0.4846880000000001
 31
0.0
  0
LINE
  5
463
  8
0
 10
0.077158
 20
0.4846880000000001
 30
0.0
 11
0.108408
 21
0.4846880000000001
 31
0.0
  0
LINE
  5
464
  8
0
 10
0.256845
 20
0.6409380000000001
 30
0.0
 11
0.14747
 21
0.6409380000000001
 31
0.0
  0
LINE
  5
465
  8
0
 10
0.14747
 20
0.6409380000000001
 30
0.0
 11
0.14747
 21
0.5784380000000001
 31
0.0
  0
LINE
  5
466
  8
0
 10
0.14747
 20
0.5784380000000001
 30
0.0
 11
0.233408
 21
0.5784380000000001
 31
0.0
  0
LINE
  5
467
  8
0
 10
0.233408
 20
0.5784380000000001
 30
0.0
 11
0.256845
 21
0.555001
 31
0.0
  0
LINE
  5
468
  8
0
 10
0.256845
 20
0.555001
 30
0.0
 11
0.256845
 21
0.508126
 31
0.0
  0
LINE
  5
469
  8
0
 10
0.256845
 20
0.508126
 30
0.0
 11
0.233408
 21
0.4846880000000001
 31
0.0
  0
LINE
  5
46A
  8
0
 10
0.233408
 20
0.4846880000000001
 30
0.0
 11
0.170908
 21
0.4846880000000001
 31
0.0
  0
LINE
  5
46B
  8
0
 10
0.170908
 20
0.4846880000000001
 30
0.0
 11
0.14747
 21
0.508126
 31
0.0
  0
LINE
  5
46C
  8
0
 10
0.30372
 20
0.5003130000000001
 30
0.0
 11
0.319345
 21
0.4846880000000001
 31
0.0
  0
LINE
  5
46D
  8
0
 10
0.319345
 20
0.4846880000000001
 30
0.0
 11
0.39747
 21
0.4846880000000001
 31
0.0
  0
LINE
  5
46E
  8
0
 10
0.39747
 20
0.4846880000000001
 30
0.0
 11
0.4130950000000001
 21
0.5003130000000001
 31
0.0
  0
LINE
  5
46F
  8
0
 10
0.4130950000000001
 20
0.5003130000000001
 30
0.0
 11
0.4130950000000001
 21
0.5471880000000001
 31
0.0
  0
LINE
  5
470
  8
0
 10
0.4130950000000001
 20
0.5471880000000001
 30
0.0
 11
0.39747
 21
0.5628130000000001
 31
0.0
  0
LINE
  5
471
  8
0
 10
0.39747
 20
0.5628130000000001
 30
0.0
 11
0.319345
 21
0.5628130000000001
 31
0.0
  0
LINE
  5
472
  8
0
 10
0.319345
 20
0.5628130000000001
 30
0.0
 11
0.30372
 21
0.5784380000000001
 31
0.0
  0
LINE
  5
473
  8
0
 10
0.30372
 20
0.5784380000000001
 30
0.0
 11
0.30372
 21
0.6253130000000001
 31
0.0
  0
LINE
  5
474
  8
0
 10
0.30372
 20
0.6253130000000001
 30
0.0
 11
0.319345
 21
0.6409380000000001
 31
0.0
  0
LINE
  5
475
  8
0
 10
0.319345
 20
0.6409380000000001
 30
0.0
 11
0.39747
 21
0.6409380000000001
 31
0.0
  0
LINE
  5
476
  8
0
 10
0.39747
 20
0.6409380000000001
 30
0.0
 11
0.4130950000000001
 21
0.6253130000000001
 31
0.0
  0
LINE
  5
477
  8
0
 10
0.4130950000000001
 20
0.6253130000000001
 30
0.0
 11
0.4130950000000001
 21
0.5784380000000001
 31
0.0
  0
LINE
  5
478
  8
0
 10
0.4130950000000001
 20
0.5784380000000001
 30
0.0
 11
0.39747
 21
0.5628130000000001
 31
0.0
  0
LINE
  5
479
  8
0
 10
0.319345
 20
0.5628130000000001
 30
0.0
 11
0.30372
 21
0.5471880000000001
 31
0.0
  0
LINE
  5
47A
  8
0
 10
0.30372
 20
0.5471880000000001
 30
0.0
 11
0.30372
 21
0.5003130000000001
 31
0.0
  0
LINE
  5
47B
  8
0
 10
1.553771
 20
0.4817720000000001
 30
0.0
 11
1.553771
 21
0.489584
 31
0.0
  0
LINE
  5
47C
  8
0
 10
1.600646
 20
0.614584
 30
0.0
 11
1.6240829999999991
 21
0.638022
 31
0.0
  0
LINE
  5
47D
  8
0
 10
1.6240829999999991
 20
0.638022
 30
0.0
 11
1.6865829999999999
 21
0.638022
 31
0.0
  0
LINE
  5
47E
  8
0
 10
1.6865829999999999
 20
0.638022
 30
0.0
 11
1.710021
 21
0.614584
 31
0.0
  0
LINE
  5
47F
  8
0
 10
1.710021
 20
0.614584
 30
0.0
 11
1.710021
 21
0.583334
 31
0.0
  0
LINE
  5
480
  8
0
 10
1.710021
 20
0.583334
 30
0.0
 11
1.6865829999999999
 21
0.559897
 31
0.0
  0
LINE
  5
481
  8
0
 10
1.6865829999999999
 20
0.559897
 30
0.0
 11
1.6397079999999999
 21
0.559897
 31
0.0
  0
LINE
  5
482
  8
0
 10
1.6865829999999999
 20
0.559897
 30
0.0
 11
1.710021
 21
0.536459
 31
0.0
  0
LINE
  5
483
  8
0
 10
1.710021
 20
0.536459
 30
0.0
 11
1.710021
 21
0.505209
 31
0.0
  0
LINE
  5
484
  8
0
 10
1.710021
 20
0.505209
 30
0.0
 11
1.6865829999999999
 21
0.4817720000000001
 31
0.0
  0
LINE
  5
485
  8
0
 10
1.6865829999999999
 20
0.4817720000000001
 30
0.0
 11
1.6240829999999991
 21
0.4817720000000001
 31
0.0
  0
LINE
  5
486
  8
0
 10
1.6240829999999991
 20
0.4817720000000001
 30
0.0
 11
1.600646
 21
0.505209
 31
0.0
  0
LINE
  5
487
  8
0
 10
1.850646
 20
0.4817720000000001
 30
0.0
 11
1.850646
 21
0.638022
 31
0.0
  0
LINE
  5
488
  8
0
 10
1.850646
 20
0.638022
 30
0.0
 11
1.756896
 21
0.552084
 31
0.0
  0
LINE
  5
489
  8
0
 10
1.756896
 20
0.552084
 30
0.0
 11
1.866271
 21
0.552084
 31
0.0
  0
LINE
  5
48A
  8
0
 10
1.913146
 20
0.505209
 30
0.0
 11
1.9365829999999999
 21
0.4817720000000001
 31
0.0
  0
LINE
  5
48B
  8
0
 10
1.9365829999999999
 20
0.4817720000000001
 30
0.0
 11
1.9990829999999999
 21
0.4817720000000001
 31
0.0
  0
LINE
  5
48C
  8
0
 10
1.9990829999999999
 20
0.4817720000000001
 30
0.0
 11
2.0225209999999989
 21
0.505209
 31
0.0
  0
LINE
  5
48D
  8
0
 10
2.0225209999999989
 20
0.505209
 30
0.0
 11
2.0225209999999989
 21
0.614584
 31
0.0
  0
LINE
  5
48E
  8
0
 10
2.0225209999999989
 20
0.614584
 30
0.0
 11
1.9990829999999999
 21
0.638022
 31
0.0
  0
LINE
  5
48F
  8
0
 10
1.9990829999999999
 20
0.638022
 30
0.0
 11
1.9365829999999999
 21
0.638022
 31
0.0
  0
LINE
  5
490
  8
0
 10
1.9365829999999999
 20
0.638022
 30
0.0
 11
1.913146
 21
0.614584
 31
0.0
  0
LINE
  5
491
  8
0
 10
1.913146
 20
0.614584
 30
0.0
 11
1.913146
 21
0.505209
 31
0.0
  0
LINE
  5
492
  8
0
 39
0.999999
 10
3.1801699999999991
 20
0.482696
 30
0.999999
 11
3.1801699999999991
 21
0.4905090000000001
 31
0.999999
  0
LINE
  5
493
  8
0
 39
0.999999
 10
3.2270449999999991
 20
0.615509
 30
0.999999
 11
3.250483
 21
0.638946
 31
0.999999
  0
LINE
  5
494
  8
0
 39
0.999999
 10
3.250483
 20
0.638946
 30
0.999999
 11
3.312983
 21
0.638946
 31
0.999999
  0
LINE
  5
495
  8
0
 39
0.999999
 10
3.312983
 20
0.638946
 30
0.999999
 11
3.3364199999999991
 21
0.615509
 31
0.999999
  0
LINE
  5
496
  8
0
 39
0.999999
 10
3.3364199999999991
 20
0.615509
 30
0.999999
 11
3.3364199999999991
 21
0.584259
 31
0.999999
  0
LINE
  5
497
  8
0
 39
0.999999
 10
3.3364199999999991
 20
0.584259
 30
0.999999
 11
3.2270449999999991
 21
0.537384
 31
0.999999
  0
LINE
  5
498
  8
0
 39
0.999999
 10
3.2270449999999991
 20
0.537384
 30
0.999999
 11
3.2270449999999991
 21
0.482696
 31
0.999999
  0
LINE
  5
499
  8
0
 39
0.999999
 10
3.2270449999999991
 20
0.482696
 30
0.999999
 11
3.3364199999999991
 21
0.482696
 31
0.999999
  0
LINE
  5
49A
  8
0
 39
0.999999
 10
3.4770449999999991
 20
0.482696
 30
0.999999
 11
3.4770449999999991
 21
0.638946
 31
0.999999
  0
LINE
  5
49B
  8
0
 39
0.999999
 10
3.4770449999999991
 20
0.638946
 30
0.999999
 11
3.3832949999999991
 21
0.553009
 31
0.999999
  0
LINE
  5
49C
  8
0
 39
0.999999
 10
3.3832949999999991
 20
0.553009
 30
0.999999
 11
3.4926699999999991
 21
0.553009
 31
0.999999
  0
LINE
  5
49D
  8
0
 39
0.999999
 10
3.6489199999999991
 20
0.638946
 30
0.999999
 11
3.5395449999999991
 21
0.638946
 31
0.999999
  0
LINE
  5
49E
  8
0
 39
0.999999
 10
3.5395449999999991
 20
0.638946
 30
0.999999
 11
3.5395449999999991
 21
0.576446
 31
0.999999
  0
LINE
  5
49F
  8
0
 39
0.999999
 10
3.5395449999999991
 20
0.576446
 30
0.999999
 11
3.625483
 21
0.576446
 31
0.999999
  0
LINE
  5
4A0
  8
0
 39
0.999999
 10
3.625483
 20
0.576446
 30
0.999999
 11
3.6489199999999991
 21
0.553009
 31
0.999999
  0
LINE
  5
4A1
  8
0
 39
0.999999
 10
3.6489199999999991
 20
0.553009
 30
0.999999
 11
3.6489199999999991
 21
0.506134
 31
0.999999
  0
LINE
  5
4A2
  8
0
 39
0.999999
 10
3.6489199999999991
 20
0.506134
 30
0.999999
 11
3.625483
 21
0.482696
 31
0.999999
  0
LINE
  5
4A3
  8
0
 39
0.999999
 10
3.625483
 20
0.482696
 30
0.999999
 11
3.562983
 21
0.482696
 31
0.999999
  0
LINE
  5
4A4
  8
0
 39
0.999999
 10
3.562983
 20
0.482696
 30
0.999999
 11
3.5395449999999991
 21
0.506134
 31
0.999999
  0
LINE
  5
4A5
  8
0
 10
-1.636719
 20
-0.140599
 30
0.0
 11
-1.636719
 21
0.015651
 31
0.0
  0
LINE
  5
4A6
  8
0
 10
-1.636719
 20
0.015651
 30
0.0
 11
-1.5507809999999991
 21
0.015651
 31
0.0
  0
LINE
  5
4A7
  8
0
 10
-1.5507809999999991
 20
0.015651
 30
0.0
 11
-1.527344
 21
-0.007787
 31
0.0
  0
LINE
  5
4A8
  8
0
 10
-1.527344
 20
-0.007787
 30
0.0
 11
-1.527344
 21
-0.039037
 31
0.0
  0
LINE
  5
4A9
  8
0
 10
-1.527344
 20
-0.039037
 30
0.0
 11
-1.5507809999999991
 21
-0.062474
 31
0.0
  0
LINE
  5
4AA
  8
0
 10
-1.5507809999999991
 20
-0.062474
 30
0.0
 11
-1.636719
 21
-0.062474
 31
0.0
  0
LINE
  5
4AB
  8
0
 10
-1.371094
 20
-0.007787
 30
0.0
 11
-1.3945309999999991
 21
0.015651
 31
0.0
  0
LINE
  5
4AC
  8
0
 10
-1.3945309999999991
 20
0.015651
 30
0.0
 11
-1.4570309999999991
 21
0.015651
 31
0.0
  0
LINE
  5
4AD
  8
0
 10
-1.4570309999999991
 20
0.015651
 30
0.0
 11
-1.480469
 21
-0.007787
 31
0.0
  0
LINE
  5
4AE
  8
0
 10
-1.480469
 20
-0.007787
 30
0.0
 11
-1.480469
 21
-0.117162
 31
0.0
  0
LINE
  5
4AF
  8
0
 10
-1.480469
 20
-0.117162
 30
0.0
 11
-1.4570309999999991
 21
-0.140599
 31
0.0
  0
LINE
  5
4B0
  8
0
 10
-1.4570309999999991
 20
-0.140599
 30
0.0
 11
-1.3945309999999991
 21
-0.140599
 31
0.0
  0
LINE
  5
4B1
  8
0
 10
-1.3945309999999991
 20
-0.140599
 30
0.0
 11
-1.371094
 21
-0.117162
 31
0.0
  0
LINE
  5
4B2
  8
0
 10
-1.3320309999999991
 20
0.000026
 30
0.0
 11
-1.3164059999999991
 21
0.015651
 31
0.0
  0
LINE
  5
4B3
  8
0
 10
-1.3164059999999991
 20
0.015651
 30
0.0
 11
-1.3164059999999991
 21
-0.140599
 31
0.0
  0
LINE
  5
4B4
  8
0
 10
-1.3320309999999991
 20
-0.140599
 30
0.0
 11
-1.3007809999999991
 21
-0.140599
 31
0.0
  0
LINE
  5
4B5
  8
0
 10
-1.167969
 20
-0.140599
 30
0.0
 11
-1.167969
 21
0.015651
 31
0.0
  0
LINE
  5
4B6
  8
0
 10
-1.167969
 20
0.015651
 30
0.0
 11
-1.261719
 21
-0.070287
 31
0.0
  0
LINE
  5
4B7
  8
0
 10
-1.261719
 20
-0.070287
 30
0.0
 11
-1.152344
 21
-0.070287
 31
0.0
  0
LINE
  5
4B8
  8
0
 10
-0.03725
 20
0.003232
 30
0.0
 11
-0.021625
 21
0.018857
 31
0.0
  0
LINE
  5
4B9
  8
0
 10
-0.021625
 20
0.018857
 30
0.0
 11
-0.021625
 21
-0.137393
 31
0.0
  0
LINE
  5
4BA
  8
0
 10
-0.03725
 20
-0.137393
 30
0.0
 11
-0.006
 21
-0.137393
 31
0.0
  0
LINE
  5
4BB
  8
0
 10
0.033062
 20
-0.137393
 30
0.0
 11
0.033062
 21
-0.12958
 31
0.0
  0
LINE
  5
4BC
  8
0
 10
0.072125
 20
0.003232
 30
0.0
 11
0.08775
 21
0.018857
 31
0.0
  0
LINE
  5
4BD
  8
0
 10
0.08775
 20
0.018857
 30
0.0
 11
0.08775
 21
-0.137393
 31
0.0
  0
LINE
  5
4BE
  8
0
 10
0.072125
 20
-0.137393
 30
0.0
 11
0.103375
 21
-0.137393
 31
0.0
  0
LINE
  5
4BF
  8
0
 10
0.142437
 20
0.003232
 30
0.0
 11
0.142437
 21
0.018857
 31
0.0
  0
LINE
  5
4C0
  8
0
 10
0.142437
 20
0.018857
 30
0.0
 11
0.251812
 21
0.018857
 31
0.0
  0
LINE
  5
4C1
  8
0
 10
0.251812
 20
0.018857
 30
0.0
 11
0.251812
 21
0.003232
 31
0.0
  0
LINE
  5
4C2
  8
0
 10
0.251812
 20
0.003232
 30
0.0
 11
0.197125
 21
-0.137393
 31
0.0
  0
LINE
  5
4C3
  8
0
 10
0.408062
 20
-0.00458
 30
0.0
 11
0.384625
 21
0.018857
 31
0.0
  0
LINE
  5
4C4
  8
0
 10
0.384625
 20
0.018857
 30
0.0
 11
0.322125
 21
0.018857
 31
0.0
  0
LINE
  5
4C5
  8
0
 10
0.322125
 20
0.018857
 30
0.0
 11
0.298687
 21
-0.00458
 31
0.0
  0
LINE
  5
4C6
  8
0
 10
0.298687
 20
-0.00458
 30
0.0
 11
0.298687
 21
-0.113955
 31
0.0
  0
LINE
  5
4C7
  8
0
 10
0.298687
 20
-0.113955
 30
0.0
 11
0.322125
 21
-0.137393
 31
0.0
  0
LINE
  5
4C8
  8
0
 10
0.322125
 20
-0.137393
 30
0.0
 11
0.384625
 21
-0.137393
 31
0.0
  0
LINE
  5
4C9
  8
0
 10
0.384625
 20
-0.137393
 30
0.0
 11
0.408062
 21
-0.113955
 31
0.0
  0
LINE
  5
4CA
  8
0
 10
0.408062
 20
-0.113955
 30
0.0
 11
0.408062
 21
-0.082705
 31
0.0
  0
LINE
  5
4CB
  8
0
 10
0.408062
 20
-0.082705
 30
0.0
 11
0.384625
 21
-0.059268
 31
0.0
  0
LINE
  5
4CC
  8
0
 10
0.384625
 20
-0.059268
 30
0.0
 11
0.322125
 21
-0.059268
 31
0.0
  0
LINE
  5
4CD
  8
0
 10
0.322125
 20
-0.059268
 30
0.0
 11
0.298687
 21
-0.082705
 31
0.0
  0
LINE
  5
4CE
  8
0
 39
0.104878
 10
1.553231
 20
-0.139013
 30
0.104878
 11
1.553231
 21
-0.131201
 31
0.104878
  0
LINE
  5
4CF
  8
0
 39
0.104878
 10
1.600106
 20
-0.006201
 30
0.104878
 11
1.6235429999999991
 21
0.017237
 31
0.104878
  0
LINE
  5
4D0
  8
0
 39
0.104878
 10
1.6235429999999991
 20
0.017237
 30
0.104878
 11
1.6860429999999991
 21
0.017237
 31
0.104878
  0
LINE
  5
4D1
  8
0
 39
0.104878
 10
1.6860429999999991
 20
0.017237
 30
0.104878
 11
1.709481
 21
-0.006201
 31
0.104878
  0
LINE
  5
4D2
  8
0
 39
0.104878
 10
1.709481
 20
-0.006201
 30
0.104878
 11
1.709481
 21
-0.037451
 31
0.104878
  0
LINE
  5
4D3
  8
0
 39
0.104878
 10
1.709481
 20
-0.037451
 30
0.104878
 11
1.600106
 21
-0.084326
 31
0.104878
  0
LINE
  5
4D4
  8
0
 39
0.104878
 10
1.600106
 20
-0.084326
 30
0.104878
 11
1.600106
 21
-0.139013
 31
0.104878
  0
LINE
  5
4D5
  8
0
 39
0.104878
 10
1.600106
 20
-0.139013
 30
0.104878
 11
1.709481
 21
-0.139013
 31
0.104878
  0
LINE
  5
4D6
  8
0
 39
0.104878
 10
1.8422929999999991
 20
-0.139013
 30
0.104878
 11
1.865731
 21
-0.037451
 31
0.104878
  0
LINE
  5
4D7
  8
0
 39
0.104878
 10
1.865731
 20
-0.037451
 30
0.104878
 11
1.865731
 21
-0.006201
 31
0.104878
  0
LINE
  5
4D8
  8
0
 39
0.104878
 10
1.865731
 20
-0.006201
 30
0.104878
 11
1.8422929999999991
 21
0.017237
 31
0.104878
  0
LINE
  5
4D9
  8
0
 39
0.104878
 10
1.8422929999999991
 20
0.017237
 30
0.104878
 11
1.7797929999999991
 21
0.017237
 31
0.104878
  0
LINE
  5
4DA
  8
0
 39
0.104878
 10
1.7797929999999991
 20
0.017237
 30
0.104878
 11
1.756356
 21
-0.006201
 31
0.104878
  0
LINE
  5
4DB
  8
0
 39
0.104878
 10
1.756356
 20
-0.006201
 30
0.104878
 11
1.756356
 21
-0.037451
 31
0.104878
  0
LINE
  5
4DC
  8
0
 39
0.104878
 10
1.756356
 20
-0.037451
 30
0.104878
 11
1.7797929999999991
 21
-0.060888
 31
0.104878
  0
LINE
  5
4DD
  8
0
 39
0.104878
 10
1.7797929999999991
 20
-0.060888
 30
0.104878
 11
1.860322
 21
-0.060888
 31
0.104878
  0
LINE
  5
4DE
  8
0
 39
0.104878
 10
2.0219809999999998
 20
0.017237
 30
0.104878
 11
1.912606
 21
0.017237
 31
0.104878
  0
LINE
  5
4DF
  8
0
 39
0.104878
 10
1.912606
 20
0.017237
 30
0.104878
 11
1.912606
 21
-0.045263
 31
0.104878
  0
LINE
  5
4E0
  8
0
 39
0.104878
 10
1.912606
 20
-0.045263
 30
0.104878
 11
1.9985429999999991
 21
-0.045263
 31
0.104878
  0
LINE
  5
4E1
  8
0
 39
0.104878
 10
1.9985429999999991
 20
-0.045263
 30
0.104878
 11
2.0219809999999998
 21
-0.068701
 31
0.104878
  0
LINE
  5
4E2
  8
0
 39
0.104878
 10
2.0219809999999998
 20
-0.068701
 30
0.104878
 11
2.0219809999999998
 21
-0.115576
 31
0.104878
  0
LINE
  5
4E3
  8
0
 39
0.104878
 10
2.0219809999999998
 20
-0.115576
 30
0.104878
 11
1.9985429999999991
 21
-0.139013
 31
0.104878
  0
LINE
  5
4E4
  8
0
 39
0.104878
 10
1.9985429999999991
 20
-0.139013
 30
0.104878
 11
1.9360429999999991
 21
-0.139013
 31
0.104878
  0
LINE
  5
4E5
  8
0
 39
0.104878
 10
1.9360429999999991
 20
-0.139013
 30
0.104878
 11
1.912606
 21
-0.115576
 31
0.104878
  0
LINE
  5
4E6
  8
0
 10
3.2311040000000002
 20
-0.138554
 30
0.0
 11
3.2311040000000002
 21
-0.130742
 31
0.0
  0
LINE
  5
4E7
  8
0
 10
3.2701669999999989
 20
0.002071
 30
0.0
 11
3.2857919999999989
 21
0.017696
 31
0.0
  0
LINE
  5
4E8
  8
0
 10
3.2857919999999989
 20
0.017696
 30
0.0
 11
3.2857919999999989
 21
-0.138554
 31
0.0
  0
LINE
  5
4E9
  8
0
 10
3.2701669999999989
 20
-0.138554
 30
0.0
 11
3.3014169999999989
 21
-0.138554
 31
0.0
  0
LINE
  5
4EA
  8
0
 10
3.3404790000000002
 20
-0.122929
 30
0.0
 11
3.3561040000000002
 21
-0.138554
 31
0.0
  0
LINE
  5
4EB
  8
0
 10
3.3561040000000002
 20
-0.138554
 30
0.0
 11
3.4342290000000002
 21
-0.138554
 31
0.0
  0
LINE
  5
4EC
  8
0
 10
3.4342290000000002
 20
-0.138554
 30
0.0
 11
3.4498540000000002
 21
-0.122929
 31
0.0
  0
LINE
  5
4ED
  8
0
 10
3.4498540000000002
 20
-0.122929
 30
0.0
 11
3.4498540000000002
 21
-0.076054
 31
0.0
  0
LINE
  5
4EE
  8
0
 10
3.4498540000000002
 20
-0.076054
 30
0.0
 11
3.4342290000000002
 21
-0.060429
 31
0.0
  0
LINE
  5
4EF
  8
0
 10
3.4342290000000002
 20
-0.060429
 30
0.0
 11
3.3561040000000002
 21
-0.060429
 31
0.0
  0
LINE
  5
4F0
  8
0
 10
3.3561040000000002
 20
-0.060429
 30
0.0
 11
3.3404790000000002
 21
-0.044804
 31
0.0
  0
LINE
  5
4F1
  8
0
 10
3.3404790000000002
 20
-0.044804
 30
0.0
 11
3.3404790000000002
 21
0.002071
 31
0.0
  0
LINE
  5
4F2
  8
0
 10
3.3404790000000002
 20
0.002071
 30
0.0
 11
3.3561040000000002
 21
0.017696
 31
0.0
  0
LINE
  5
4F3
  8
0
 10
3.3561040000000002
 20
0.017696
 30
0.0
 11
3.4342290000000002
 21
0.017696
 31
0.0
  0
LINE
  5
4F4
  8
0
 10
3.4342290000000002
 20
0.017696
 30
0.0
 11
3.4498540000000002
 21
0.002071
 31
0.0
  0
LINE
  5
4F5
  8
0
 10
3.4498540000000002
 20
0.002071
 30
0.0
 11
3.4498540000000002
 21
-0.044804
 31
0.0
  0
LINE
  5
4F6
  8
0
 10
3.4498540000000002
 20
-0.044804
 30
0.0
 11
3.4342290000000002
 21
-0.060429
 31
0.0
  0
LINE
  5
4F7
  8
0
 10
3.3561040000000002
 20
-0.060429
 30
0.0
 11
3.3404790000000002
 21
-0.076054
 31
0.0
  0
LINE
  5
4F8
  8
0
 10
3.3404790000000002
 20
-0.076054
 30
0.0
 11
3.3404790000000002
 21
-0.122929
 31
0.0
  0
LINE
  5
4F9
  8
0
 10
3.6061040000000002
 20
-0.005742
 30
0.0
 11
3.5826669999999989
 21
0.017696
 31
0.0
  0
LINE
  5
4FA
  8
0
 10
3.5826669999999989
 20
0.017696
 30
0.0
 11
3.5201669999999989
 21
0.017696
 31
0.0
  0
LINE
  5
4FB
  8
0
 10
3.5201669999999989
 20
0.017696
 30
0.0
 11
3.4967290000000002
 21
-0.005742
 31
0.0
  0
LINE
  5
4FC
  8
0
 10
3.4967290000000002
 20
-0.005742
 30
0.0
 11
3.4967290000000002
 21
-0.115117
 31
0.0
  0
LINE
  5
4FD
  8
0
 10
3.4967290000000002
 20
-0.115117
 30
0.0
 11
3.5201669999999989
 21
-0.138554
 31
0.0
  0
LINE
  5
4FE
  8
0
 10
3.5201669999999989
 20
-0.138554
 30
0.0
 11
3.5826669999999989
 21
-0.138554
 31
0.0
  0
LINE
  5
4FF
  8
0
 10
3.5826669999999989
 20
-0.138554
 30
0.0
 11
3.6061040000000002
 21
-0.115117
 31
0.0
  0
LINE
  5
500
  8
0
 10
3.6061040000000002
 20
-0.115117
 30
0.0
 11
3.6061040000000002
 21
-0.083867
 31
0.0
  0
LINE
  5
501
  8
0
 10
3.6061040000000002
 20
-0.083867
 30
0.0
 11
3.5826669999999989
 21
-0.060429
 31
0.0
  0
LINE
  5
502
  8
0
 10
3.5826669999999989
 20
-0.060429
 30
0.0
 11
3.5201669999999989
 21
-0.060429
 31
0.0
  0
LINE
  5
503
  8
0
 10
3.5201669999999989
 20
-0.060429
 30
0.0
 11
3.4967290000000002
 21
-0.083867
 31
0.0
  0
LINE
  5
504
  8
0
 10
-1.636719
 20
-0.765599
 30
0.0
 11
-1.636719
 21
-0.609349
 31
0.0
  0
LINE
  5
505
  8
0
 10
-1.636719
 20
-0.609349
 30
0.0
 11
-1.5507809999999991
 21
-0.609349
 31
0.0
  0
LINE
  5
506
  8
0
 10
-1.5507809999999991
 20
-0.609349
 30
0.0
 11
-1.527344
 21
-0.632787
 31
0.0
  0
LINE
  5
507
  8
0
 10
-1.527344
 20
-0.632787
 30
0.0
 11
-1.527344
 21
-0.664037
 31
0.0
  0
LINE
  5
508
  8
0
 10
-1.527344
 20
-0.664037
 30
0.0
 11
-1.5507809999999991
 21
-0.687474
 31
0.0
  0
LINE
  5
509
  8
0
 10
-1.5507809999999991
 20
-0.687474
 30
0.0
 11
-1.636719
 21
-0.687474
 31
0.0
  0
LINE
  5
50A
  8
0
 10
-1.371094
 20
-0.632787
 30
0.0
 11
-1.3945309999999991
 21
-0.609349
 31
0.0
  0
LINE
  5
50B
  8
0
 10
-1.3945309999999991
 20
-0.609349
 30
0.0
 11
-1.4570309999999991
 21
-0.609349
 31
0.0
  0
LINE
  5
50C
  8
0
 10
-1.4570309999999991
 20
-0.609349
 30
0.0
 11
-1.480469
 21
-0.632787
 31
0.0
  0
LINE
  5
50D
  8
0
 10
-1.480469
 20
-0.632787
 30
0.0
 11
-1.480469
 21
-0.742162
 31
0.0
  0
LINE
  5
50E
  8
0
 10
-1.480469
 20
-0.742162
 30
0.0
 11
-1.4570309999999991
 21
-0.765599
 31
0.0
  0
LINE
  5
50F
  8
0
 10
-1.4570309999999991
 20
-0.765599
 30
0.0
 11
-1.3945309999999991
 21
-0.765599
 31
0.0
  0
LINE
  5
510
  8
0
 10
-1.3945309999999991
 20
-0.765599
 30
0.0
 11
-1.371094
 21
-0.742162
 31
0.0
  0
LINE
  5
511
  8
0
 10
-1.3320309999999991
 20
-0.624974
 30
0.0
 11
-1.3164059999999991
 21
-0.609349
 31
0.0
  0
LINE
  5
512
  8
0
 10
-1.3164059999999991
 20
-0.609349
 30
0.0
 11
-1.3164059999999991
 21
-0.765599
 31
0.0
  0
LINE
  5
513
  8
0
 10
-1.3320309999999991
 20
-0.765599
 30
0.0
 11
-1.3007809999999991
 21
-0.765599
 31
0.0
  0
LINE
  5
514
  8
0
 10
-1.167969
 20
-0.765599
 30
0.0
 11
-1.167969
 21
-0.609349
 31
0.0
  0
LINE
  5
515
  8
0
 10
-1.167969
 20
-0.609349
 30
0.0
 11
-1.261719
 21
-0.695287
 31
0.0
  0
LINE
  5
516
  8
0
 10
-1.261719
 20
-0.695287
 30
0.0
 11
-1.152344
 21
-0.695287
 31
0.0
  0
LINE
  5
517
  8
0
 10
-1.105469
 20
-0.609349
 30
0.0
 11
-1.105469
 21
-0.765599
 31
0.0
  0
LINE
  5
518
  8
0
 10
-1.105469
 20
-0.765599
 30
0.0
 11
-0.996094
 21
-0.765599
 31
0.0
  0
LINE
  5
519
  8
0
 10
-0.040528
 20
-0.625899
 30
0.0
 11
-0.024903
 21
-0.610274
 31
0.0
  0
LINE
  5
51A
  8
0
 10
-0.024903
 20
-0.610274
 30
0.0
 11
-0.024903
 21
-0.766524
 31
0.0
  0
LINE
  5
51B
  8
0
 10
-0.040528
 20
-0.766524
 30
0.0
 11
-0.009278
 21
-0.766524
 31
0.0
  0
LINE
  5
51C
  8
0
 10
0.029784
 20
-0.766524
 30
0.0
 11
0.029784
 21
-0.758711
 31
0.0
  0
LINE
  5
51D
  8
0
 10
0.076659
 20
-0.633711
 30
0.0
 11
0.100097
 21
-0.610274
 31
0.0
  0
LINE
  5
51E
  8
0
 10
0.100097
 20
-0.610274
 30
0.0
 11
0.162597
 21
-0.610274
 31
0.0
  0
LINE
  5
51F
  8
0
 10
0.162597
 20
-0.610274
 30
0.0
 11
0.186034
 21
-0.633711
 31
0.0
  0
LINE
  5
520
  8
0
 10
0.186034
 20
-0.633711
 30
0.0
 11
0.186034
 21
-0.664961
 31
0.0
  0
LINE
  5
521
  8
0
 10
0.186034
 20
-0.664961
 30
0.0
 11
0.076659
 21
-0.711836
 31
0.0
  0
LINE
  5
522
  8
0
 10
0.076659
 20
-0.711836
 30
0.0
 11
0.076659
 21
-0.766524
 31
0.0
  0
LINE
  5
523
  8
0
 10
0.076659
 20
-0.766524
 30
0.0
 11
0.186034
 21
-0.766524
 31
0.0
  0
LINE
  5
524
  8
0
 10
0.326659
 20
-0.766524
 30
0.0
 11
0.326659
 21
-0.610274
 31
0.0
  0
LINE
  5
525
  8
0
 10
0.326659
 20
-0.610274
 30
0.0
 11
0.232909
 21
-0.696211
 31
0.0
  0
LINE
  5
526
  8
0
 10
0.232909
 20
-0.696211
 30
0.0
 11
0.342284
 21
-0.696211
 31
0.0
  0
LINE
  5
527
  8
0
 10
0.381347
 20
-0.625899
 30
0.0
 11
0.396972
 21
-0.610274
 31
0.0
  0
LINE
  5
528
  8
0
 10
0.396972
 20
-0.610274
 30
0.0
 11
0.396972
 21
-0.766524
 31
0.0
  0
LINE
  5
529
  8
0
 10
0.381347
 20
-0.766524
 30
0.0
 11
0.4125970000000001
 21
-0.766524
 31
0.0
  0
LINE
  5
52A
  8
0
 39
-0.999999
 10
1.5568559999999989
 20
-0.7699699999999999
 30
-0.999999
 11
1.5568559999999989
 21
-0.7621570000000001
 31
-0.999999
  0
LINE
  5
52B
  8
0
 39
-0.999999
 10
1.6037309999999989
 20
-0.6371570000000001
 30
-0.999999
 11
1.6271679999999991
 21
-0.6137199999999999
 31
-0.999999
  0
LINE
  5
52C
  8
0
 39
-0.999999
 10
1.6271679999999991
 20
-0.6137199999999999
 30
-0.999999
 11
1.6896679999999991
 21
-0.6137199999999999
 31
-0.999999
  0
LINE
  5
52D
  8
0
 39
-0.999999
 10
1.6896679999999991
 20
-0.6137199999999999
 30
-0.999999
 11
1.713106
 21
-0.6371570000000001
 31
-0.999999
  0
LINE
  5
52E
  8
0
 39
-0.999999
 10
1.713106
 20
-0.6371570000000001
 30
-0.999999
 11
1.713106
 21
-0.6684070000000001
 31
-0.999999
  0
LINE
  5
52F
  8
0
 39
-0.999999
 10
1.713106
 20
-0.6684070000000001
 30
-0.999999
 11
1.6896679999999991
 21
-0.6918449999999999
 31
-0.999999
  0
LINE
  5
530
  8
0
 39
-0.999999
 10
1.6896679999999991
 20
-0.6918449999999999
 30
-0.999999
 11
1.6427929999999991
 21
-0.6918449999999999
 31
-0.999999
  0
LINE
  5
531
  8
0
 39
-0.999999
 10
1.6896679999999991
 20
-0.6918449999999999
 30
-0.999999
 11
1.713106
 21
-0.7152820000000001
 31
-0.999999
  0
LINE
  5
532
  8
0
 39
-0.999999
 10
1.713106
 20
-0.7152820000000001
 30
-0.999999
 11
1.713106
 21
-0.7465320000000001
 31
-0.999999
  0
LINE
  5
533
  8
0
 39
-0.999999
 10
1.713106
 20
-0.7465320000000001
 30
-0.999999
 11
1.6896679999999991
 21
-0.7699699999999999
 31
-0.999999
  0
LINE
  5
534
  8
0
 39
-0.999999
 10
1.6896679999999991
 20
-0.7699699999999999
 30
-0.999999
 11
1.6271679999999991
 21
-0.7699699999999999
 31
-0.999999
  0
LINE
  5
535
  8
0
 39
-0.999999
 10
1.6271679999999991
 20
-0.7699699999999999
 30
-0.999999
 11
1.6037309999999989
 21
-0.7465320000000001
 31
-0.999999
  0
LINE
  5
536
  8
0
 39
-0.999999
 10
1.869356
 20
-0.6371570000000001
 30
-0.999999
 11
1.8459179999999991
 21
-0.6137199999999999
 31
-0.999999
  0
LINE
  5
537
  8
0
 39
-0.999999
 10
1.8459179999999991
 20
-0.6137199999999999
 30
-0.999999
 11
1.7834179999999991
 21
-0.6137199999999999
 31
-0.999999
  0
LINE
  5
538
  8
0
 39
-0.999999
 10
1.7834179999999991
 20
-0.6137199999999999
 30
-0.999999
 11
1.759981
 21
-0.6371570000000001
 31
-0.999999
  0
LINE
  5
539
  8
0
 39
-0.999999
 10
1.759981
 20
-0.6371570000000001
 30
-0.999999
 11
1.759981
 21
-0.7465320000000001
 31
-0.999999
  0
LINE
  5
53A
  8
0
 39
-0.999999
 10
1.759981
 20
-0.7465320000000001
 30
-0.999999
 11
1.7834179999999991
 21
-0.7699699999999999
 31
-0.999999
  0
LINE
  5
53B
  8
0
 39
-0.999999
 10
1.7834179999999991
 20
-0.7699699999999999
 30
-0.999999
 11
1.8459179999999991
 21
-0.7699699999999999
 31
-0.999999
  0
LINE
  5
53C
  8
0
 39
-0.999999
 10
1.8459179999999991
 20
-0.7699699999999999
 30
-0.999999
 11
1.869356
 21
-0.7465320000000001
 31
-0.999999
  0
LINE
  5
53D
  8
0
 39
-0.999999
 10
1.869356
 20
-0.7465320000000001
 30
-0.999999
 11
1.869356
 21
-0.7152820000000001
 31
-0.999999
  0
LINE
  5
53E
  8
0
 39
-0.999999
 10
1.869356
 20
-0.7152820000000001
 30
-0.999999
 11
1.8459179999999991
 21
-0.6918449999999999
 31
-0.999999
  0
LINE
  5
53F
  8
0
 39
-0.999999
 10
1.8459179999999991
 20
-0.6918449999999999
 30
-0.999999
 11
1.7834179999999991
 21
-0.6918449999999999
 31
-0.999999
  0
LINE
  5
540
  8
0
 39
-0.999999
 10
1.7834179999999991
 20
-0.6918449999999999
 30
-0.999999
 11
1.759981
 21
-0.7152820000000001
 31
-0.999999
  0
LINE
  5
541
  8
0
 39
-0.999999
 10
1.916231
 20
-0.7465320000000001
 30
-0.999999
 11
1.9396679999999991
 21
-0.7699699999999999
 31
-0.999999
  0
LINE
  5
542
  8
0
 39
-0.999999
 10
1.9396679999999991
 20
-0.7699699999999999
 30
-0.999999
 11
2.0021680000000002
 21
-0.7699699999999999
 31
-0.999999
  0
LINE
  5
543
  8
0
 39
-0.999999
 10
2.0021680000000002
 20
-0.7699699999999999
 30
-0.999999
 11
2.0256059999999998
 21
-0.7465320000000001
 31
-0.999999
  0
LINE
  5
544
  8
0
 39
-0.999999
 10
2.0256059999999998
 20
-0.7465320000000001
 30
-0.999999
 11
2.0256059999999998
 21
-0.6371570000000001
 31
-0.999999
  0
LINE
  5
545
  8
0
 39
-0.999999
 10
2.0256059999999998
 20
-0.6371570000000001
 30
-0.999999
 11
2.0021680000000002
 21
-0.6137199999999999
 31
-0.999999
  0
LINE
  5
546
  8
0
 39
-0.999999
 10
2.0021680000000002
 20
-0.6137199999999999
 30
-0.999999
 11
1.9396679999999991
 21
-0.6137199999999999
 31
-0.999999
  0
LINE
  5
547
  8
0
 39
-0.999999
 10
1.9396679999999991
 20
-0.6137199999999999
 30
-0.999999
 11
1.916231
 21
-0.6371570000000001
 31
-0.999999
  0
LINE
  5
548
  8
0
 39
-0.999999
 10
1.916231
 20
-0.6371570000000001
 30
-0.999999
 11
1.916231
 21
-0.7465320000000001
 31
-0.999999
  0
LINE
  5
549
  8
0
 39
0.999999
 10
3.1799859999999991
 20
-0.7660630000000001
 30
0.999999
 11
3.1799859999999991
 21
-0.758251
 31
0.999999
  0
LINE
  5
54A
  8
0
 39
0.999999
 10
3.2268609999999991
 20
-0.633251
 30
0.999999
 11
3.250299
 21
-0.6098130000000001
 31
0.999999
  0
LINE
  5
54B
  8
0
 39
0.999999
 10
3.250299
 20
-0.6098130000000001
 30
0.999999
 11
3.3127989999999992
 21
-0.6098130000000001
 31
0.999999
  0
LINE
  5
54C
  8
0
 39
0.999999
 10
3.3127989999999992
 20
-0.6098130000000001
 30
0.999999
 11
3.3362359999999991
 21
-0.633251
 31
0.999999
  0
LINE
  5
54D
  8
0
 39
0.999999
 10
3.3362359999999991
 20
-0.633251
 30
0.999999
 11
3.3362359999999991
 21
-0.664501
 31
0.999999
  0
LINE
  5
54E
  8
0
 39
0.999999
 10
3.3362359999999991
 20
-0.664501
 30
0.999999
 11
3.2268609999999991
 21
-0.711376
 31
0.999999
  0
LINE
  5
54F
  8
0
 39
0.999999
 10
3.2268609999999991
 20
-0.711376
 30
0.999999
 11
3.2268609999999991
 21
-0.7660630000000001
 31
0.999999
  0
LINE
  5
550
  8
0
 39
0.999999
 10
3.2268609999999991
 20
-0.7660630000000001
 30
0.999999
 11
3.3362359999999991
 21
-0.7660630000000001
 31
0.999999
  0
LINE
  5
551
  8
0
 39
0.999999
 10
3.4924859999999991
 20
-0.6098130000000001
 30
0.999999
 11
3.3831109999999991
 21
-0.6098130000000001
 31
0.999999
  0
LINE
  5
552
  8
0
 39
0.999999
 10
3.3831109999999991
 20
-0.6098130000000001
 30
0.999999
 11
3.3831109999999991
 21
-0.6723130000000001
 31
0.999999
  0
LINE
  5
553
  8
0
 39
0.999999
 10
3.3831109999999991
 20
-0.6723130000000001
 30
0.999999
 11
3.4690489999999992
 21
-0.6723130000000001
 31
0.999999
  0
LINE
  5
554
  8
0
 39
0.999999
 10
3.4690489999999992
 20
-0.6723130000000001
 30
0.999999
 11
3.4924859999999991
 21
-0.695751
 31
0.999999
  0
LINE
  5
555
  8
0
 39
0.999999
 10
3.4924859999999991
 20
-0.695751
 30
0.999999
 11
3.4924859999999991
 21
-0.742626
 31
0.999999
  0
LINE
  5
556
  8
0
 39
0.999999
 10
3.4924859999999991
 20
-0.742626
 30
0.999999
 11
3.4690489999999992
 21
-0.7660630000000001
 31
0.999999
  0
LINE
  5
557
  8
0
 39
0.999999
 10
3.4690489999999992
 20
-0.7660630000000001
 30
0.999999
 11
3.4065489999999992
 21
-0.7660630000000001
 31
0.999999
  0
LINE
  5
558
  8
0
 39
0.999999
 10
3.4065489999999992
 20
-0.7660630000000001
 30
0.999999
 11
3.3831109999999991
 21
-0.742626
 31
0.999999
  0
LINE
  5
559
  8
0
 39
0.999999
 10
3.5393609999999991
 20
-0.742626
 30
0.999999
 11
3.5627989999999992
 21
-0.7660630000000001
 31
0.999999
  0
LINE
  5
55A
  8
0
 39
0.999999
 10
3.5627989999999992
 20
-0.7660630000000001
 30
0.999999
 11
3.6252989999999992
 21
-0.7660630000000001
 31
0.999999
  0
LINE
  5
55B
  8
0
 39
0.999999
 10
3.6252989999999992
 20
-0.7660630000000001
 30
0.999999
 11
3.6487359999999991
 21
-0.742626
 31
0.999999
  0
LINE
  5
55C
  8
0
 39
0.999999
 10
3.6487359999999991
 20
-0.742626
 30
0.999999
 11
3.6487359999999991
 21
-0.633251
 31
0.999999
  0
LINE
  5
55D
  8
0
 39
0.999999
 10
3.6487359999999991
 20
-0.633251
 30
0.999999
 11
3.6252989999999992
 21
-0.6098130000000001
 31
0.999999
  0
LINE
  5
55E
  8
0
 39
0.999999
 10
3.6252989999999992
 20
-0.6098130000000001
 30
0.999999
 11
3.5627989999999992
 21
-0.6098130000000001
 31
0.999999
  0
LINE
  5
55F
  8
0
 39
0.999999
 10
3.5627989999999992
 20
-0.6098130000000001
 30
0.999999
 11
3.5393609999999991
 21
-0.633251
 31
0.999999
  0
LINE
  5
560
  8
0
 39
0.999999
 10
3.5393609999999991
 20
-0.633251
 30
0.999999
 11
3.5393609999999991
 21
-0.742626
 31
0.999999
  0
LINE
  5
561
  8
0
 10
-1.636719
 20
-1.390598999999999
 30
0.0
 11
-1.636719
 21
-1.234348999999999
 31
0.0
  0
LINE
  5
562
  8
0
 10
-1.636719
 20
-1.234348999999999
 30
0.0
 11
-1.5507809999999991
 21
-1.234348999999999
 31
0.0
  0
LINE
  5
563
  8
0
 10
-1.5507809999999991
 20
-1.234348999999999
 30
0.0
 11
-1.527344
 21
-1.2577869999999991
 31
0.0
  0
LINE
  5
564
  8
0
 10
-1.527344
 20
-1.2577869999999991
 30
0.0
 11
-1.527344
 21
-1.2890369999999991
 31
0.0
  0
LINE
  5
565
  8
0
 10
-1.527344
 20
-1.2890369999999991
 30
0.0
 11
-1.5507809999999991
 21
-1.312473999999999
 31
0.0
  0
LINE
  5
566
  8
0
 10
-1.5507809999999991
 20
-1.312473999999999
 30
0.0
 11
-1.636719
 21
-1.312473999999999
 31
0.0
  0
LINE
  5
567
  8
0
 10
-1.371094
 20
-1.2577869999999991
 30
0.0
 11
-1.3945309999999991
 21
-1.234348999999999
 31
0.0
  0
LINE
  5
568
  8
0
 10
-1.3945309999999991
 20
-1.234348999999999
 30
0.0
 11
-1.4570309999999991
 21
-1.234348999999999
 31
0.0
  0
LINE
  5
569
  8
0
 10
-1.4570309999999991
 20
-1.234348999999999
 30
0.0
 11
-1.480469
 21
-1.2577869999999991
 31
0.0
  0
LINE
  5
56A
  8
0
 10
-1.480469
 20
-1.2577869999999991
 30
0.0
 11
-1.480469
 21
-1.3671619999999991
 31
0.0
  0
LINE
  5
56B
  8
0
 10
-1.480469
 20
-1.3671619999999991
 30
0.0
 11
-1.4570309999999991
 21
-1.390598999999999
 31
0.0
  0
LINE
  5
56C
  8
0
 10
-1.4570309999999991
 20
-1.390598999999999
 30
0.0
 11
-1.3945309999999991
 21
-1.390598999999999
 31
0.0
  0
LINE
  5
56D
  8
0
 10
-1.3945309999999991
 20
-1.390598999999999
 30
0.0
 11
-1.371094
 21
-1.3671619999999991
 31
0.0
  0
LINE
  5
56E
  8
0
 10
-1.3320309999999991
 20
-1.249973999999999
 30
0.0
 11
-1.3164059999999991
 21
-1.234348999999999
 31
0.0
  0
LINE
  5
56F
  8
0
 10
-1.3164059999999991
 20
-1.234348999999999
 30
0.0
 11
-1.3164059999999991
 21
-1.390598999999999
 31
0.0
  0
LINE
  5
570
  8
0
 10
-1.3320309999999991
 20
-1.390598999999999
 30
0.0
 11
-1.3007809999999991
 21
-1.390598999999999
 31
0.0
  0
LINE
  5
571
  8
0
 10
-1.152344
 20
-1.234348999999999
 30
0.0
 11
-1.261719
 21
-1.234348999999999
 31
0.0
  0
LINE
  5
572
  8
0
 10
-1.261719
 20
-1.234348999999999
 30
0.0
 11
-1.261719
 21
-1.296848999999999
 31
0.0
  0
LINE
  5
573
  8
0
 10
-1.261719
 20
-1.296848999999999
 30
0.0
 11
-1.1757809999999991
 21
-1.296848999999999
 31
0.0
  0
LINE
  5
574
  8
0
 10
-1.1757809999999991
 20
-1.296848999999999
 30
0.0
 11
-1.152344
 21
-1.3202869999999991
 31
0.0
  0
LINE
  5
575
  8
0
 10
-1.152344
 20
-1.3202869999999991
 30
0.0
 11
-1.152344
 21
-1.3671619999999991
 31
0.0
  0
LINE
  5
576
  8
0
 10
-1.152344
 20
-1.3671619999999991
 30
0.0
 11
-1.1757809999999991
 21
-1.390598999999999
 31
0.0
  0
LINE
  5
577
  8
0
 10
-1.1757809999999991
 20
-1.390598999999999
 30
0.0
 11
-1.2382809999999991
 21
-1.390598999999999
 31
0.0
  0
LINE
  5
578
  8
0
 10
-1.2382809999999991
 20
-1.390598999999999
 30
0.0
 11
-1.261719
 21
-1.3671619999999991
 31
0.0
  0
LINE
  5
579
  8
0
 10
-0.034427
 20
-1.252761
 30
0.0
 11
-0.018802
 21
-1.237136
 31
0.0
  0
LINE
  5
57A
  8
0
 10
-0.018802
 20
-1.237136
 30
0.0
 11
-0.018802
 21
-1.393386
 31
0.0
  0
LINE
  5
57B
  8
0
 10
-0.034427
 20
-1.393386
 30
0.0
 11
-0.003177
 21
-1.393386
 31
0.0
  0
LINE
  5
57C
  8
0
 10
0.035885
 20
-1.393386
 30
0.0
 11
0.035885
 21
-1.3855729999999991
 31
0.0
  0
LINE
  5
57D
  8
0
 10
0.074948
 20
-1.252761
 30
0.0
 11
0.090573
 21
-1.237136
 31
0.0
  0
LINE
  5
57E
  8
0
 10
0.090573
 20
-1.237136
 30
0.0
 11
0.090573
 21
-1.393386
 31
0.0
  0
LINE
  5
57F
  8
0
 10
0.074948
 20
-1.393386
 30
0.0
 11
0.106198
 21
-1.393386
 31
0.0
  0
LINE
  5
580
  8
0
 10
0.14526
 20
-1.377761
 30
0.0
 11
0.160885
 21
-1.393386
 31
0.0
  0
LINE
  5
581
  8
0
 10
0.160885
 20
-1.393386
 30
0.0
 11
0.23901
 21
-1.393386
 31
0.0
  0
LINE
  5
582
  8
0
 10
0.23901
 20
-1.393386
 30
0.0
 11
0.254635
 21
-1.377761
 31
0.0
  0
LINE
  5
583
  8
0
 10
0.254635
 20
-1.377761
 30
0.0
 11
0.254635
 21
-1.330886
 31
0.0
  0
LINE
  5
584
  8
0
 10
0.254635
 20
-1.330886
 30
0.0
 11
0.23901
 21
-1.315261
 31
0.0
  0
LINE
  5
585
  8
0
 10
0.23901
 20
-1.315261
 30
0.0
 11
0.160885
 21
-1.315261
 31
0.0
  0
LINE
  5
586
  8
0
 10
0.160885
 20
-1.315261
 30
0.0
 11
0.14526
 21
-1.299636
 31
0.0
  0
LINE
  5
587
  8
0
 10
0.14526
 20
-1.299636
 30
0.0
 11
0.14526
 21
-1.252761
 31
0.0
  0
LINE
  5
588
  8
0
 10
0.14526
 20
-1.252761
 30
0.0
 11
0.160885
 21
-1.237136
 31
0.0
  0
LINE
  5
589
  8
0
 10
0.160885
 20
-1.237136
 30
0.0
 11
0.23901
 21
-1.237136
 31
0.0
  0
LINE
  5
58A
  8
0
 10
0.23901
 20
-1.237136
 30
0.0
 11
0.254635
 21
-1.252761
 31
0.0
  0
LINE
  5
58B
  8
0
 10
0.254635
 20
-1.252761
 30
0.0
 11
0.254635
 21
-1.299636
 31
0.0
  0
LINE
  5
58C
  8
0
 10
0.254635
 20
-1.299636
 30
0.0
 11
0.23901
 21
-1.315261
 31
0.0
  0
LINE
  5
58D
  8
0
 10
0.160885
 20
-1.315261
 30
0.0
 11
0.14526
 21
-1.330886
 31
0.0
  0
LINE
  5
58E
  8
0
 10
0.14526
 20
-1.330886
 30
0.0
 11
0.14526
 21
-1.377761
 31
0.0
  0
LINE
  5
58F
  8
0
 10
0.30151
 20
-1.3699479999999991
 30
0.0
 11
0.324948
 21
-1.393386
 31
0.0
  0
LINE
  5
590
  8
0
 10
0.324948
 20
-1.393386
 30
0.0
 11
0.387448
 21
-1.393386
 31
0.0
  0
LINE
  5
591
  8
0
 10
0.387448
 20
-1.393386
 30
0.0
 11
0.4108850000000001
 21
-1.3699479999999991
 31
0.0
  0
LINE
  5
592
  8
0
 10
0.4108850000000001
 20
-1.3699479999999991
 30
0.0
 11
0.4108850000000001
 21
-1.2605729999999991
 31
0.0
  0
LINE
  5
593
  8
0
 10
0.4108850000000001
 20
-1.2605729999999991
 30
0.0
 11
0.387448
 21
-1.237136
 31
0.0
  0
LINE
  5
594
  8
0
 10
0.387448
 20
-1.237136
 30
0.0
 11
0.324948
 21
-1.237136
 31
0.0
  0
LINE
  5
595
  8
0
 10
0.324948
 20
-1.237136
 30
0.0
 11
0.30151
 21
-1.2605729999999991
 31
0.0
  0
LINE
  5
596
  8
0
 10
0.30151
 20
-1.2605729999999991
 30
0.0
 11
0.30151
 21
-1.3699479999999991
 31
0.0
  0
LINE
  5
597
  8
0
 10
1.553134
 20
-1.393386
 30
0.0
 11
1.553134
 21
-1.3855729999999991
 31
0.0
  0
LINE
  5
598
  8
0
 10
1.600009
 20
-1.2605729999999991
 30
0.0
 11
1.623446999999999
 21
-1.237136
 31
0.0
  0
LINE
  5
599
  8
0
 10
1.623446999999999
 20
-1.237136
 30
0.0
 11
1.6859470000000001
 21
-1.237136
 31
0.0
  0
LINE
  5
59A
  8
0
 10
1.6859470000000001
 20
-1.237136
 30
0.0
 11
1.709384
 21
-1.2605729999999991
 31
0.0
  0
LINE
  5
59B
  8
0
 10
1.709384
 20
-1.2605729999999991
 30
0.0
 11
1.709384
 21
-1.2918229999999991
 31
0.0
  0
LINE
  5
59C
  8
0
 10
1.709384
 20
-1.2918229999999991
 30
0.0
 11
1.6859470000000001
 21
-1.315261
 31
0.0
  0
LINE
  5
59D
  8
0
 10
1.6859470000000001
 20
-1.315261
 30
0.0
 11
1.6390720000000001
 21
-1.315261
 31
0.0
  0
LINE
  5
59E
  8
0
 10
1.6859470000000001
 20
-1.315261
 30
0.0
 11
1.709384
 21
-1.3386979999999991
 31
0.0
  0
LINE
  5
59F
  8
0
 10
1.709384
 20
-1.3386979999999991
 30
0.0
 11
1.709384
 21
-1.3699479999999991
 31
0.0
  0
LINE
  5
5A0
  8
0
 10
1.709384
 20
-1.3699479999999991
 30
0.0
 11
1.6859470000000001
 21
-1.393386
 31
0.0
  0
LINE
  5
5A1
  8
0
 10
1.6859470000000001
 20
-1.393386
 30
0.0
 11
1.623446999999999
 21
-1.393386
 31
0.0
  0
LINE
  5
5A2
  8
0
 10
1.623446999999999
 20
-1.393386
 30
0.0
 11
1.600009
 21
-1.3699479999999991
 31
0.0
  0
LINE
  5
5A3
  8
0
 10
1.865634
 20
-1.2605729999999991
 30
0.0
 11
1.8421970000000001
 21
-1.237136
 31
0.0
  0
LINE
  5
5A4
  8
0
 10
1.8421970000000001
 20
-1.237136
 30
0.0
 11
1.7796970000000001
 21
-1.237136
 31
0.0
  0
LINE
  5
5A5
  8
0
 10
1.7796970000000001
 20
-1.237136
 30
0.0
 11
1.756259
 21
-1.2605729999999991
 31
0.0
  0
LINE
  5
5A6
  8
0
 10
1.756259
 20
-1.2605729999999991
 30
0.0
 11
1.756259
 21
-1.3699479999999991
 31
0.0
  0
LINE
  5
5A7
  8
0
 10
1.756259
 20
-1.3699479999999991
 30
0.0
 11
1.7796970000000001
 21
-1.393386
 31
0.0
  0
LINE
  5
5A8
  8
0
 10
1.7796970000000001
 20
-1.393386
 30
0.0
 11
1.8421970000000001
 21
-1.393386
 31
0.0
  0
LINE
  5
5A9
  8
0
 10
1.8421970000000001
 20
-1.393386
 30
0.0
 11
1.865634
 21
-1.3699479999999991
 31
0.0
  0
LINE
  5
5AA
  8
0
 10
1.865634
 20
-1.3699479999999991
 30
0.0
 11
1.865634
 21
-1.3386979999999991
 31
0.0
  0
LINE
  5
5AB
  8
0
 10
1.865634
 20
-1.3386979999999991
 30
0.0
 11
1.8421970000000001
 21
-1.315261
 31
0.0
  0
LINE
  5
5AC
  8
0
 10
1.8421970000000001
 20
-1.315261
 30
0.0
 11
1.7796970000000001
 21
-1.315261
 31
0.0
  0
LINE
  5
5AD
  8
0
 10
1.7796970000000001
 20
-1.315261
 30
0.0
 11
1.756259
 21
-1.3386979999999991
 31
0.0
  0
LINE
  5
5AE
  8
0
 10
1.912509
 20
-1.3699479999999991
 30
0.0
 11
1.9359470000000001
 21
-1.393386
 31
0.0
  0
LINE
  5
5AF
  8
0
 10
1.9359470000000001
 20
-1.393386
 30
0.0
 11
1.9984470000000001
 21
-1.393386
 31
0.0
  0
LINE
  5
5B0
  8
0
 10
1.9984470000000001
 20
-1.393386
 30
0.0
 11
2.021884
 21
-1.3699479999999991
 31
0.0
  0
LINE
  5
5B1
  8
0
 10
2.021884
 20
-1.3699479999999991
 30
0.0
 11
2.021884
 21
-1.2605729999999991
 31
0.0
  0
LINE
  5
5B2
  8
0
 10
2.021884
 20
-1.2605729999999991
 30
0.0
 11
1.9984470000000001
 21
-1.237136
 31
0.0
  0
LINE
  5
5B3
  8
0
 10
1.9984470000000001
 20
-1.237136
 30
0.0
 11
1.9359470000000001
 21
-1.237136
 31
0.0
  0
LINE
  5
5B4
  8
0
 10
1.9359470000000001
 20
-1.237136
 30
0.0
 11
1.912509
 21
-1.2605729999999991
 31
0.0
  0
LINE
  5
5B5
  8
0
 10
1.912509
 20
-1.2605729999999991
 30
0.0
 11
1.912509
 21
-1.3699479999999991
 31
0.0
  0
LINE
  5
5B6
  8
0
 10
-1.636719
 20
-2.0155989999999999
 30
0.0
 11
-1.636719
 21
-1.8593489999999999
 31
0.0
  0
LINE
  5
5B7
  8
0
 10
-1.636719
 20
-1.8593489999999999
 30
0.0
 11
-1.5507809999999991
 21
-1.8593489999999999
 31
0.0
  0
LINE
  5
5B8
  8
0
 10
-1.5507809999999991
 20
-1.8593489999999999
 30
0.0
 11
-1.527344
 21
-1.882787
 31
0.0
  0
LINE
  5
5B9
  8
0
 10
-1.527344
 20
-1.882787
 30
0.0
 11
-1.527344
 21
-1.914037
 31
0.0
  0
LINE
  5
5BA
  8
0
 10
-1.527344
 20
-1.914037
 30
0.0
 11
-1.5507809999999991
 21
-1.9374739999999999
 31
0.0
  0
LINE
  5
5BB
  8
0
 10
-1.5507809999999991
 20
-1.9374739999999999
 30
0.0
 11
-1.636719
 21
-1.9374739999999999
 31
0.0
  0
LINE
  5
5BC
  8
0
 10
-1.371094
 20
-1.882787
 30
0.0
 11
-1.3945309999999991
 21
-1.8593489999999999
 31
0.0
  0
LINE
  5
5BD
  8
0
 10
-1.3945309999999991
 20
-1.8593489999999999
 30
0.0
 11
-1.4570309999999991
 21
-1.8593489999999999
 31
0.0
  0
LINE
  5
5BE
  8
0
 10
-1.4570309999999991
 20
-1.8593489999999999
 30
0.0
 11
-1.480469
 21
-1.882787
 31
0.0
  0
LINE
  5
5BF
  8
0
 10
-1.480469
 20
-1.882787
 30
0.0
 11
-1.480469
 21
-1.992162
 31
0.0
  0
LINE
  5
5C0
  8
0
 10
-1.480469
 20
-1.992162
 30
0.0
 11
-1.4570309999999991
 21
-2.0155989999999999
 31
0.0
  0
LINE
  5
5C1
  8
0
 10
-1.4570309999999991
 20
-2.0155989999999999
 30
0.0
 11
-1.3945309999999991
 21
-2.0155989999999999
 31
0.0
  0
LINE
  5
5C2
  8
0
 10
-1.3945309999999991
 20
-2.0155989999999999
 30
0.0
 11
-1.371094
 21
-1.992162
 31
0.0
  0
LINE
  5
5C3
  8
0
 10
-1.3320309999999991
 20
-1.8749739999999999
 30
0.0
 11
-1.3164059999999991
 21
-1.8593489999999999
 31
0.0
  0
LINE
  5
5C4
  8
0
 10
-1.3164059999999991
 20
-1.8593489999999999
 30
0.0
 11
-1.3164059999999991
 21
-2.0155989999999999
 31
0.0
  0
LINE
  5
5C5
  8
0
 10
-1.3320309999999991
 20
-2.0155989999999999
 30
0.0
 11
-1.3007809999999991
 21
-2.0155989999999999
 31
0.0
  0
LINE
  5
5C6
  8
0
 10
-1.152344
 20
-1.8593489999999999
 30
0.0
 11
-1.261719
 21
-1.8593489999999999
 31
0.0
  0
LINE
  5
5C7
  8
0
 10
-1.261719
 20
-1.8593489999999999
 30
0.0
 11
-1.261719
 21
-1.9218489999999999
 31
0.0
  0
LINE
  5
5C8
  8
0
 10
-1.261719
 20
-1.9218489999999999
 30
0.0
 11
-1.1757809999999991
 21
-1.9218489999999999
 31
0.0
  0
LINE
  5
5C9
  8
0
 10
-1.1757809999999991
 20
-1.9218489999999999
 30
0.0
 11
-1.152344
 21
-1.945287
 31
0.0
  0
LINE
  5
5CA
  8
0
 10
-1.152344
 20
-1.945287
 30
0.0
 11
-1.152344
 21
-1.992162
 31
0.0
  0
LINE
  5
5CB
  8
0
 10
-1.152344
 20
-1.992162
 30
0.0
 11
-1.1757809999999991
 21
-2.0155989999999999
 31
0.0
  0
LINE
  5
5CC
  8
0
 10
-1.1757809999999991
 20
-2.0155989999999999
 30
0.0
 11
-1.2382809999999991
 21
-2.0155989999999999
 31
0.0
  0
LINE
  5
5CD
  8
0
 10
-1.2382809999999991
 20
-2.0155989999999999
 30
0.0
 11
-1.261719
 21
-1.992162
 31
0.0
  0
LINE
  5
5CE
  8
0
 10
-1.105469
 20
-1.8593489999999999
 30
0.0
 11
-1.105469
 21
-2.0155989999999999
 31
0.0
  0
LINE
  5
5CF
  8
0
 10
-1.105469
 20
-2.0155989999999999
 30
0.0
 11
-0.996094
 21
-2.0155989999999999
 31
0.0
  0
LINE
  5
5D0
  8
0
 10
-0.085281
 20
-1.8753049999999989
 30
0.0
 11
-0.069656
 21
-1.8596799999999989
 31
0.0
  0
LINE
  5
5D1
  8
0
 10
-0.069656
 20
-1.8596799999999989
 30
0.0
 11
-0.069656
 21
-2.0159299999999991
 31
0.0
  0
LINE
  5
5D2
  8
0
 10
-0.085281
 20
-2.0159299999999991
 30
0.0
 11
-0.054031
 21
-2.0159299999999991
 31
0.0
  0
LINE
  5
5D3
  8
0
 10
-0.014969
 20
-2.0159299999999991
 30
0.0
 11
-0.014969
 21
-2.008116999999999
 31
0.0
  0
LINE
  5
5D4
  8
0
 10
0.031906
 20
-1.8831169999999999
 30
0.0
 11
0.055344
 21
-1.8596799999999989
 31
0.0
  0
LINE
  5
5D5
  8
0
 10
0.055344
 20
-1.8596799999999989
 30
0.0
 11
0.117844
 21
-1.8596799999999989
 31
0.0
  0
LINE
  5
5D6
  8
0
 10
0.117844
 20
-1.8596799999999989
 30
0.0
 11
0.141281
 21
-1.8831169999999999
 31
0.0
  0
LINE
  5
5D7
  8
0
 10
0.141281
 20
-1.8831169999999999
 30
0.0
 11
0.141281
 21
-1.9143669999999999
 31
0.0
  0
LINE
  5
5D8
  8
0
 10
0.141281
 20
-1.9143669999999999
 30
0.0
 11
0.031906
 21
-1.9612419999999999
 31
0.0
  0
LINE
  5
5D9
  8
0
 10
0.031906
 20
-1.9612419999999999
 30
0.0
 11
0.031906
 21
-2.0159299999999991
 31
0.0
  0
LINE
  5
5DA
  8
0
 10
0.031906
 20
-2.0159299999999991
 30
0.0
 11
0.141281
 21
-2.0159299999999991
 31
0.0
  0
LINE
  5
5DB
  8
0
 10
0.281906
 20
-2.0159299999999991
 30
0.0
 11
0.281906
 21
-1.8596799999999989
 31
0.0
  0
LINE
  5
5DC
  8
0
 10
0.281906
 20
-1.8596799999999989
 30
0.0
 11
0.188156
 21
-1.9456169999999999
 31
0.0
  0
LINE
  5
5DD
  8
0
 10
0.188156
 20
-1.9456169999999999
 30
0.0
 11
0.297531
 21
-1.9456169999999999
 31
0.0
  0
LINE
  5
5DE
  8
0
 10
0.4537810000000001
 20
-1.8596799999999989
 30
0.0
 11
0.344406
 21
-1.8596799999999989
 31
0.0
  0
LINE
  5
5DF
  8
0
 10
0.344406
 20
-1.8596799999999989
 30
0.0
 11
0.344406
 21
-1.9221799999999989
 31
0.0
  0
LINE
  5
5E0
  8
0
 10
0.344406
 20
-1.9221799999999989
 30
0.0
 11
0.430344
 21
-1.9221799999999989
 31
0.0
  0
LINE
  5
5E1
  8
0
 10
0.430344
 20
-1.9221799999999989
 30
0.0
 11
0.4537810000000001
 21
-1.9456169999999999
 31
0.0
  0
LINE
  5
5E2
  8
0
 10
0.4537810000000001
 20
-1.9456169999999999
 30
0.0
 11
0.4537810000000001
 21
-1.9924919999999999
 31
0.0
  0
LINE
  5
5E3
  8
0
 10
0.4537810000000001
 20
-1.9924919999999999
 30
0.0
 11
0.430344
 21
-2.0159299999999991
 31
0.0
  0
LINE
  5
5E4
  8
0
 10
0.430344
 20
-2.0159299999999991
 30
0.0
 11
0.367844
 21
-2.0159299999999991
 31
0.0
  0
LINE
  5
5E5
  8
0
 10
0.367844
 20
-2.0159299999999991
 30
0.0
 11
0.344406
 21
-1.9924919999999999
 31
0.0
  0
LINE
  5
5E6
  8
0
 10
1.555029999999999
 20
-2.015890999999999
 30
0.0
 11
1.555029999999999
 21
-2.0080789999999991
 31
0.0
  0
LINE
  5
5E7
  8
0
 10
1.695654999999999
 20
-2.015890999999999
 30
0.0
 11
1.695654999999999
 21
-1.859640999999999
 31
0.0
  0
LINE
  5
5E8
  8
0
 10
1.695654999999999
 20
-1.859640999999999
 30
0.0
 11
1.601904999999999
 21
-1.9455789999999999
 31
0.0
  0
LINE
  5
5E9
  8
0
 10
1.601904999999999
 20
-1.9455789999999999
 30
0.0
 11
1.711279999999999
 21
-1.9455789999999999
 31
0.0
  0
LINE
  5
5EA
  8
0
 10
1.758154999999999
 20
-1.8830789999999999
 30
0.0
 11
1.7815929999999991
 21
-1.859640999999999
 31
0.0
  0
LINE
  5
5EB
  8
0
 10
1.7815929999999991
 20
-1.859640999999999
 30
0.0
 11
1.8440929999999991
 21
-1.859640999999999
 31
0.0
  0
LINE
  5
5EC
  8
0
 10
1.8440929999999991
 20
-1.859640999999999
 30
0.0
 11
1.8675299999999999
 21
-1.8830789999999999
 31
0.0
  0
LINE
  5
5ED
  8
0
 10
1.8675299999999999
 20
-1.8830789999999999
 30
0.0
 11
1.8675299999999999
 21
-1.9143289999999999
 31
0.0
  0
LINE
  5
5EE
  8
0
 10
1.8675299999999999
 20
-1.9143289999999999
 30
0.0
 11
1.758154999999999
 21
-1.9612039999999999
 31
0.0
  0
LINE
  5
5EF
  8
0
 10
1.758154999999999
 20
-1.9612039999999999
 30
0.0
 11
1.758154999999999
 21
-2.015890999999999
 31
0.0
  0
LINE
  5
5F0
  8
0
 10
1.758154999999999
 20
-2.015890999999999
 30
0.0
 11
1.8675299999999999
 21
-2.015890999999999
 31
0.0
  0
LINE
  5
5F1
  8
0
 10
2.023779999999999
 20
-1.859640999999999
 30
0.0
 11
1.9144049999999999
 21
-1.859640999999999
 31
0.0
  0
LINE
  5
5F2
  8
0
 10
1.9144049999999999
 20
-1.859640999999999
 30
0.0
 11
1.9144049999999999
 21
-1.922140999999999
 31
0.0
  0
LINE
  5
5F3
  8
0
 10
1.9144049999999999
 20
-1.922140999999999
 30
0.0
 11
2.0003429999999991
 21
-1.922140999999999
 31
0.0
  0
LINE
  5
5F4
  8
0
 10
2.0003429999999991
 20
-1.922140999999999
 30
0.0
 11
2.023779999999999
 21
-1.9455789999999999
 31
0.0
  0
LINE
  5
5F5
  8
0
 10
2.023779999999999
 20
-1.9455789999999999
 30
0.0
 11
2.023779999999999
 21
-1.9924539999999999
 31
0.0
  0
LINE
  5
5F6
  8
0
 10
2.023779999999999
 20
-1.9924539999999999
 30
0.0
 11
2.0003429999999991
 21
-2.015890999999999
 31
0.0
  0
LINE
  5
5F7
  8
0
 10
2.0003429999999991
 20
-2.015890999999999
 30
0.0
 11
1.9378429999999991
 21
-2.015890999999999
 31
0.0
  0
LINE
  5
5F8
  8
0
 10
1.9378429999999991
 20
-2.015890999999999
 30
0.0
 11
1.9144049999999999
 21
-1.9924539999999999
 31
0.0
  0
LINE
  5
5F9
  8
0
 10
-1.636719
 20
-2.6405989999999999
 30
0.0
 11
-1.636719
 21
-2.4843489999999999
 31
0.0
  0
LINE
  5
5FA
  8
0
 10
-1.636719
 20
-2.4843489999999999
 30
0.0
 11
-1.5507809999999991
 21
-2.4843489999999999
 31
0.0
  0
LINE
  5
5FB
  8
0
 10
-1.5507809999999991
 20
-2.4843489999999999
 30
0.0
 11
-1.527344
 21
-2.5077869999999991
 31
0.0
  0
LINE
  5
5FC
  8
0
 10
-1.527344
 20
-2.5077869999999991
 30
0.0
 11
-1.527344
 21
-2.5390369999999991
 31
0.0
  0
LINE
  5
5FD
  8
0
 10
-1.527344
 20
-2.5390369999999991
 30
0.0
 11
-1.5507809999999991
 21
-2.5624739999999999
 31
0.0
  0
LINE
  5
5FE
  8
0
 10
-1.5507809999999991
 20
-2.5624739999999999
 30
0.0
 11
-1.636719
 21
-2.5624739999999999
 31
0.0
  0
LINE
  5
5FF
  8
0
 10
-1.371094
 20
-2.5077869999999991
 30
0.0
 11
-1.3945309999999991
 21
-2.4843489999999999
 31
0.0
  0
LINE
  5
600
  8
0
 10
-1.3945309999999991
 20
-2.4843489999999999
 30
0.0
 11
-1.4570309999999991
 21
-2.4843489999999999
 31
0.0
  0
LINE
  5
601
  8
0
 10
-1.4570309999999991
 20
-2.4843489999999999
 30
0.0
 11
-1.480469
 21
-2.5077869999999991
 31
0.0
  0
LINE
  5
602
  8
0
 10
-1.480469
 20
-2.5077869999999991
 30
0.0
 11
-1.480469
 21
-2.6171619999999991
 31
0.0
  0
LINE
  5
603
  8
0
 10
-1.480469
 20
-2.6171619999999991
 30
0.0
 11
-1.4570309999999991
 21
-2.6405989999999999
 31
0.0
  0
LINE
  5
604
  8
0
 10
-1.4570309999999991
 20
-2.6405989999999999
 30
0.0
 11
-1.3945309999999991
 21
-2.6405989999999999
 31
0.0
  0
LINE
  5
605
  8
0
 10
-1.3945309999999991
 20
-2.6405989999999999
 30
0.0
 11
-1.371094
 21
-2.6171619999999991
 31
0.0
  0
LINE
  5
606
  8
0
 10
-1.3320309999999991
 20
-2.4999739999999999
 30
0.0
 11
-1.3164059999999991
 21
-2.4843489999999999
 31
0.0
  0
LINE
  5
607
  8
0
 10
-1.3164059999999991
 20
-2.4843489999999999
 30
0.0
 11
-1.3164059999999991
 21
-2.6405989999999999
 31
0.0
  0
LINE
  5
608
  8
0
 10
-1.3320309999999991
 20
-2.6405989999999999
 30
0.0
 11
-1.3007809999999991
 21
-2.6405989999999999
 31
0.0
  0
LINE
  5
609
  8
0
 10
-1.152344
 20
-2.5077869999999991
 30
0.0
 11
-1.1757809999999991
 21
-2.4843489999999999
 31
0.0
  0
LINE
  5
60A
  8
0
 10
-1.1757809999999991
 20
-2.4843489999999999
 30
0.0
 11
-1.2382809999999991
 21
-2.4843489999999999
 31
0.0
  0
LINE
  5
60B
  8
0
 10
-1.2382809999999991
 20
-2.4843489999999999
 30
0.0
 11
-1.261719
 21
-2.5077869999999991
 31
0.0
  0
LINE
  5
60C
  8
0
 10
-1.261719
 20
-2.5077869999999991
 30
0.0
 11
-1.261719
 21
-2.6171619999999991
 31
0.0
  0
LINE
  5
60D
  8
0
 10
-1.261719
 20
-2.6171619999999991
 30
0.0
 11
-1.2382809999999991
 21
-2.6405989999999999
 31
0.0
  0
LINE
  5
60E
  8
0
 10
-1.2382809999999991
 20
-2.6405989999999999
 30
0.0
 11
-1.1757809999999991
 21
-2.6405989999999999
 31
0.0
  0
LINE
  5
60F
  8
0
 10
-1.1757809999999991
 20
-2.6405989999999999
 30
0.0
 11
-1.152344
 21
-2.6171619999999991
 31
0.0
  0
LINE
  5
610
  8
0
 10
-1.152344
 20
-2.6171619999999991
 30
0.0
 11
-1.152344
 21
-2.5859119999999991
 31
0.0
  0
LINE
  5
611
  8
0
 10
-1.152344
 20
-2.5859119999999991
 30
0.0
 11
-1.1757809999999991
 21
-2.5624739999999999
 31
0.0
  0
LINE
  5
612
  8
0
 10
-1.1757809999999991
 20
-2.5624739999999999
 30
0.0
 11
-1.2382809999999991
 21
-2.5624739999999999
 31
0.0
  0
LINE
  5
613
  8
0
 10
-1.2382809999999991
 20
-2.5624739999999999
 30
0.0
 11
-1.261719
 21
-2.5859119999999991
 31
0.0
  0
LINE
  5
614
  8
0
 39
0.999999
 10
-0.035842
 20
-2.5004680000000001
 30
0.999999
 11
-0.020217
 21
-2.4848430000000001
 31
0.999999
  0
LINE
  5
615
  8
0
 39
0.999999
 10
-0.020217
 20
-2.4848430000000001
 30
0.999999
 11
-0.020217
 21
-2.6410930000000001
 31
0.999999
  0
LINE
  5
616
  8
0
 39
0.999999
 10
-0.035842
 20
-2.6410930000000001
 30
0.999999
 11
-0.004592
 21
-2.6410930000000001
 31
0.999999
  0
LINE
  5
617
  8
0
 39
0.999999
 10
0.03447
 20
-2.6410930000000001
 30
0.999999
 11
0.03447
 21
-2.6332800000000001
 31
0.999999
  0
LINE
  5
618
  8
0
 39
0.999999
 10
0.073533
 20
-2.5004680000000001
 30
0.999999
 11
0.089158
 21
-2.4848430000000001
 31
0.999999
  0
LINE
  5
619
  8
0
 39
0.999999
 10
0.089158
 20
-2.4848430000000001
 30
0.999999
 11
0.089158
 21
-2.6410930000000001
 31
0.999999
  0
LINE
  5
61A
  8
0
 39
0.999999
 10
0.073533
 20
-2.6410930000000001
 30
0.999999
 11
0.104783
 21
-2.6410930000000001
 31
0.999999
  0
LINE
  5
61B
  8
0
 39
0.999999
 10
0.143845
 20
-2.6254680000000001
 30
0.999999
 11
0.15947
 21
-2.6410930000000001
 31
0.999999
  0
LINE
  5
61C
  8
0
 39
0.999999
 10
0.15947
 20
-2.6410930000000001
 30
0.999999
 11
0.237595
 21
-2.6410930000000001
 31
0.999999
  0
LINE
  5
61D
  8
0
 39
0.999999
 10
0.237595
 20
-2.6410930000000001
 30
0.999999
 11
0.25322
 21
-2.6254680000000001
 31
0.999999
  0
LINE
  5
61E
  8
0
 39
0.999999
 10
0.25322
 20
-2.6254680000000001
 30
0.999999
 11
0.25322
 21
-2.5785930000000001
 31
0.999999
  0
LINE
  5
61F
  8
0
 39
0.999999
 10
0.25322
 20
-2.5785930000000001
 30
0.999999
 11
0.237595
 21
-2.5629680000000001
 31
0.999999
  0
LINE
  5
620
  8
0
 39
0.999999
 10
0.237595
 20
-2.5629680000000001
 30
0.999999
 11
0.15947
 21
-2.5629680000000001
 31
0.999999
  0
LINE
  5
621
  8
0
 39
0.999999
 10
0.15947
 20
-2.5629680000000001
 30
0.999999
 11
0.143845
 21
-2.5473430000000001
 31
0.999999
  0
LINE
  5
622
  8
0
 39
0.999999
 10
0.143845
 20
-2.5473430000000001
 30
0.999999
 11
0.143845
 21
-2.5004680000000001
 31
0.999999
  0
LINE
  5
623
  8
0
 39
0.999999
 10
0.143845
 20
-2.5004680000000001
 30
0.999999
 11
0.15947
 21
-2.4848430000000001
 31
0.999999
  0
LINE
  5
624
  8
0
 39
0.999999
 10
0.15947
 20
-2.4848430000000001
 30
0.999999
 11
0.237595
 21
-2.4848430000000001
 31
0.999999
  0
LINE
  5
625
  8
0
 39
0.999999
 10
0.237595
 20
-2.4848430000000001
 30
0.999999
 11
0.25322
 21
-2.5004680000000001
 31
0.999999
  0
LINE
  5
626
  8
0
 39
0.999999
 10
0.25322
 20
-2.5004680000000001
 30
0.999999
 11
0.25322
 21
-2.5473430000000001
 31
0.999999
  0
LINE
  5
627
  8
0
 39
0.999999
 10
0.25322
 20
-2.5473430000000001
 30
0.999999
 11
0.237595
 21
-2.5629680000000001
 31
0.999999
  0
LINE
  5
628
  8
0
 39
0.999999
 10
0.15947
 20
-2.5629680000000001
 30
0.999999
 11
0.143845
 21
-2.5785930000000001
 31
0.999999
  0
LINE
  5
629
  8
0
 39
0.999999
 10
0.143845
 20
-2.5785930000000001
 30
0.999999
 11
0.143845
 21
-2.6254680000000001
 31
0.999999
  0
LINE
  5
62A
  8
0
 39
0.999999
 10
0.300095
 20
-2.6176550000000001
 30
0.999999
 11
0.323533
 21
-2.6410930000000001
 31
0.999999
  0
LINE
  5
62B
  8
0
 39
0.999999
 10
0.323533
 20
-2.6410930000000001
 30
0.999999
 11
0.386033
 21
-2.6410930000000001
 31
0.999999
  0
LINE
  5
62C
  8
0
 39
0.999999
 10
0.386033
 20
-2.6410930000000001
 30
0.999999
 11
0.40947
 21
-2.6176550000000001
 31
0.999999
  0
LINE
  5
62D
  8
0
 39
0.999999
 10
0.40947
 20
-2.6176550000000001
 30
0.999999
 11
0.40947
 21
-2.5082800000000001
 31
0.999999
  0
LINE
  5
62E
  8
0
 39
0.999999
 10
0.40947
 20
-2.5082800000000001
 30
0.999999
 11
0.386033
 21
-2.4848430000000001
 31
0.999999
  0
LINE
  5
62F
  8
0
 39
0.999999
 10
0.386033
 20
-2.4848430000000001
 30
0.999999
 11
0.323533
 21
-2.4848430000000001
 31
0.999999
  0
LINE
  5
630
  8
0
 39
0.999999
 10
0.323533
 20
-2.4848430000000001
 30
0.999999
 11
0.300095
 21
-2.5082800000000001
 31
0.999999
  0
LINE
  5
631
  8
0
 39
0.999999
 10
0.300095
 20
-2.5082800000000001
 30
0.999999
 11
0.300095
 21
-2.6176550000000001
 31
0.999999
  0
LINE
  5
632
  8
0
 39
0.999999
 10
1.553083999999999
 20
-2.6437349999999991
 30
0.999999
 11
1.553083999999999
 21
-2.6359219999999999
 31
0.999999
  0
LINE
  5
633
  8
0
 39
0.999999
 10
1.599958999999999
 20
-2.5109219999999999
 30
0.999999
 11
1.6233969999999991
 21
-2.4874849999999991
 31
0.999999
  0
LINE
  5
634
  8
0
 39
0.999999
 10
1.6233969999999991
 20
-2.4874849999999991
 30
0.999999
 11
1.685897
 21
-2.4874849999999991
 31
0.999999
  0
LINE
  5
635
  8
0
 39
0.999999
 10
1.685897
 20
-2.4874849999999991
 30
0.999999
 11
1.709333999999999
 21
-2.5109219999999999
 31
0.999999
  0
LINE
  5
636
  8
0
 39
0.999999
 10
1.709333999999999
 20
-2.5109219999999999
 30
0.999999
 11
1.709333999999999
 21
-2.5421719999999999
 31
0.999999
  0
LINE
  5
637
  8
0
 39
0.999999
 10
1.709333999999999
 20
-2.5421719999999999
 30
0.999999
 11
1.685897
 21
-2.5656099999999991
 31
0.999999
  0
LINE
  5
638
  8
0
 39
0.999999
 10
1.685897
 20
-2.5656099999999991
 30
0.999999
 11
1.639022
 21
-2.5656099999999991
 31
0.999999
  0
LINE
  5
639
  8
0
 39
0.999999
 10
1.685897
 20
-2.5656099999999991
 30
0.999999
 11
1.709333999999999
 21
-2.5890469999999999
 31
0.999999
  0
LINE
  5
63A
  8
0
 39
0.999999
 10
1.709333999999999
 20
-2.5890469999999999
 30
0.999999
 11
1.709333999999999
 21
-2.6202969999999999
 31
0.999999
  0
LINE
  5
63B
  8
0
 39
0.999999
 10
1.709333999999999
 20
-2.6202969999999999
 30
0.999999
 11
1.685897
 21
-2.6437349999999991
 31
0.999999
  0
LINE
  5
63C
  8
0
 39
0.999999
 10
1.685897
 20
-2.6437349999999991
 30
0.999999
 11
1.6233969999999991
 21
-2.6437349999999991
 31
0.999999
  0
LINE
  5
63D
  8
0
 39
0.999999
 10
1.6233969999999991
 20
-2.6437349999999991
 30
0.999999
 11
1.599958999999999
 21
-2.6202969999999999
 31
0.999999
  0
LINE
  5
63E
  8
0
 39
0.999999
 10
1.865583999999999
 20
-2.5109219999999999
 30
0.999999
 11
1.842147
 21
-2.4874849999999991
 31
0.999999
  0
LINE
  5
63F
  8
0
 39
0.999999
 10
1.842147
 20
-2.4874849999999991
 30
0.999999
 11
1.779647
 21
-2.4874849999999991
 31
0.999999
  0
LINE
  5
640
  8
0
 39
0.999999
 10
1.779647
 20
-2.4874849999999991
 30
0.999999
 11
1.756208999999999
 21
-2.5109219999999999
 31
0.999999
  0
LINE
  5
641
  8
0
 39
0.999999
 10
1.756208999999999
 20
-2.5109219999999999
 30
0.999999
 11
1.756208999999999
 21
-2.6202969999999999
 31
0.999999
  0
LINE
  5
642
  8
0
 39
0.999999
 10
1.756208999999999
 20
-2.6202969999999999
 30
0.999999
 11
1.779647
 21
-2.6437349999999991
 31
0.999999
  0
LINE
  5
643
  8
0
 39
0.999999
 10
1.779647
 20
-2.6437349999999991
 30
0.999999
 11
1.842147
 21
-2.6437349999999991
 31
0.999999
  0
LINE
  5
644
  8
0
 39
0.999999
 10
1.842147
 20
-2.6437349999999991
 30
0.999999
 11
1.865583999999999
 21
-2.6202969999999999
 31
0.999999
  0
LINE
  5
645
  8
0
 39
0.999999
 10
1.865583999999999
 20
-2.6202969999999999
 30
0.999999
 11
1.865583999999999
 21
-2.5890469999999999
 31
0.999999
  0
LINE
  5
646
  8
0
 39
0.999999
 10
1.865583999999999
 20
-2.5890469999999999
 30
0.999999
 11
1.842147
 21
-2.5656099999999991
 31
0.999999
  0
LINE
  5
647
  8
0
 39
0.999999
 10
1.842147
 20
-2.5656099999999991
 30
0.999999
 11
1.779647
 21
-2.5656099999999991
 31
0.999999
  0
LINE
  5
648
  8
0
 39
0.999999
 10
1.779647
 20
-2.5656099999999991
 30
0.999999
 11
1.756208999999999
 21
-2.5890469999999999
 31
0.999999
  0
LINE
  5
649
  8
0
 39
0.999999
 10
1.912458999999999
 20
-2.6202969999999999
 30
0.999999
 11
1.935897
 21
-2.6437349999999991
 31
0.999999
  0
LINE
  5
64A
  8
0
 39
0.999999
 10
1.935897
 20
-2.6437349999999991
 30
0.999999
 11
1.998397
 21
-2.6437349999999991
 31
0.999999
  0
LINE
  5
64B
  8
0
 39
0.999999
 10
1.998397
 20
-2.6437349999999991
 30
0.999999
 11
2.0218340000000001
 21
-2.6202969999999999
 31
0.999999
  0
LINE
  5
64C
  8
0
 39
0.999999
 10
2.0218340000000001
 20
-2.6202969999999999
 30
0.999999
 11
2.0218340000000001
 21
-2.5109219999999999
 31
0.999999
  0
LINE
  5
64D
  8
0
 39
0.999999
 10
2.0218340000000001
 20
-2.5109219999999999
 30
0.999999
 11
1.998397
 21
-2.4874849999999991
 31
0.999999
  0
LINE
  5
64E
  8
0
 39
0.999999
 10
1.998397
 20
-2.4874849999999991
 30
0.999999
 11
1.935897
 21
-2.4874849999999991
 31
0.999999
  0
LINE
  5
64F
  8
0
 39
0.999999
 10
1.935897
 20
-2.4874849999999991
 30
0.999999
 11
1.912458999999999
 21
-2.5109219999999999
 31
0.999999
  0
LINE
  5
650
  8
0
 39
0.999999
 10
1.912458999999999
 20
-2.5109219999999999
 30
0.999999
 11
1.912458999999999
 21
-2.6202969999999999
 31
0.999999
  0
LINE
  5
651
  8
0
 10
-1.636719
 20
-3.2655989999999999
 30
0.0
 11
-1.636719
 21
-3.1093489999999999
 31
0.0
  0
LINE
  5
652
  8
0
 10
-1.636719
 20
-3.1093489999999999
 30
0.0
 11
-1.5507809999999991
 21
-3.1093489999999999
 31
0.0
  0
LINE
  5
653
  8
0
 10
-1.5507809999999991
 20
-3.1093489999999999
 30
0.0
 11
-1.527344
 21
-3.1327869999999991
 31
0.0
  0
LINE
  5
654
  8
0
 10
-1.527344
 20
-3.1327869999999991
 30
0.0
 11
-1.527344
 21
-3.1640369999999991
 31
0.0
  0
LINE
  5
655
  8
0
 10
-1.527344
 20
-3.1640369999999991
 30
0.0
 11
-1.5507809999999991
 21
-3.1874739999999999
 31
0.0
  0
LINE
  5
656
  8
0
 10
-1.5507809999999991
 20
-3.1874739999999999
 30
0.0
 11
-1.636719
 21
-3.1874739999999999
 31
0.0
  0
LINE
  5
657
  8
0
 10
-1.371094
 20
-3.1327869999999991
 30
0.0
 11
-1.3945309999999991
 21
-3.1093489999999999
 31
0.0
  0
LINE
  5
658
  8
0
 10
-1.3945309999999991
 20
-3.1093489999999999
 30
0.0
 11
-1.4570309999999991
 21
-3.1093489999999999
 31
0.0
  0
LINE
  5
659
  8
0
 10
-1.4570309999999991
 20
-3.1093489999999999
 30
0.0
 11
-1.480469
 21
-3.1327869999999991
 31
0.0
  0
LINE
  5
65A
  8
0
 10
-1.480469
 20
-3.1327869999999991
 30
0.0
 11
-1.480469
 21
-3.2421619999999991
 31
0.0
  0
LINE
  5
65B
  8
0
 10
-1.480469
 20
-3.2421619999999991
 30
0.0
 11
-1.4570309999999991
 21
-3.2655989999999999
 31
0.0
  0
LINE
  5
65C
  8
0
 10
-1.4570309999999991
 20
-3.2655989999999999
 30
0.0
 11
-1.3945309999999991
 21
-3.2655989999999999
 31
0.0
  0
LINE
  5
65D
  8
0
 10
-1.3945309999999991
 20
-3.2655989999999999
 30
0.0
 11
-1.371094
 21
-3.2421619999999991
 31
0.0
  0
LINE
  5
65E
  8
0
 10
-1.3320309999999991
 20
-3.1249739999999999
 30
0.0
 11
-1.3164059999999991
 21
-3.1093489999999999
 31
0.0
  0
LINE
  5
65F
  8
0
 10
-1.3164059999999991
 20
-3.1093489999999999
 30
0.0
 11
-1.3164059999999991
 21
-3.2655989999999999
 31
0.0
  0
LINE
  5
660
  8
0
 10
-1.3320309999999991
 20
-3.2655989999999999
 30
0.0
 11
-1.3007809999999991
 21
-3.2655989999999999
 31
0.0
  0
LINE
  5
661
  8
0
 10
-1.152344
 20
-3.1327869999999991
 30
0.0
 11
-1.1757809999999991
 21
-3.1093489999999999
 31
0.0
  0
LINE
  5
662
  8
0
 10
-1.1757809999999991
 20
-3.1093489999999999
 30
0.0
 11
-1.2382809999999991
 21
-3.1093489999999999
 31
0.0
  0
LINE
  5
663
  8
0
 10
-1.2382809999999991
 20
-3.1093489999999999
 30
0.0
 11
-1.261719
 21
-3.1327869999999991
 31
0.0
  0
LINE
  5
664
  8
0
 10
-1.261719
 20
-3.1327869999999991
 30
0.0
 11
-1.261719
 21
-3.2421619999999991
 31
0.0
  0
LINE
  5
665
  8
0
 10
-1.261719
 20
-3.2421619999999991
 30
0.0
 11
-1.2382809999999991
 21
-3.2655989999999999
 31
0.0
  0
LINE
  5
666
  8
0
 10
-1.2382809999999991
 20
-3.2655989999999999
 30
0.0
 11
-1.1757809999999991
 21
-3.2655989999999999
 31
0.0
  0
LINE
  5
667
  8
0
 10
-1.1757809999999991
 20
-3.2655989999999999
 30
0.0
 11
-1.152344
 21
-3.2421619999999991
 31
0.0
  0
LINE
  5
668
  8
0
 10
-1.152344
 20
-3.2421619999999991
 30
0.0
 11
-1.152344
 21
-3.2109119999999991
 31
0.0
  0
LINE
  5
669
  8
0
 10
-1.152344
 20
-3.2109119999999991
 30
0.0
 11
-1.1757809999999991
 21
-3.1874739999999999
 31
0.0
  0
LINE
  5
66A
  8
0
 10
-1.1757809999999991
 20
-3.1874739999999999
 30
0.0
 11
-1.2382809999999991
 21
-3.1874739999999999
 31
0.0
  0
LINE
  5
66B
  8
0
 10
-1.2382809999999991
 20
-3.1874739999999999
 30
0.0
 11
-1.261719
 21
-3.2109119999999991
 31
0.0
  0
LINE
  5
66C
  8
0
 10
-1.105469
 20
-3.1093489999999999
 30
0.0
 11
-1.105469
 21
-3.2655989999999999
 31
0.0
  0
LINE
  5
66D
  8
0
 10
-1.105469
 20
-3.2655989999999999
 30
0.0
 11
-0.996094
 21
-3.2655989999999999
 31
0.0
  0
LINE
  5
66E
  8
0
 39
0.999999
 10
-0.083512
 20
-3.124201999999999
 30
0.999999
 11
-0.067887
 21
-3.108576999999999
 31
0.999999
  0
LINE
  5
66F
  8
0
 39
0.999999
 10
-0.067887
 20
-3.108576999999999
 30
0.999999
 11
-0.067887
 21
-3.264826999999999
 31
0.999999
  0
LINE
  5
670
  8
0
 39
0.999999
 10
-0.083512
 20
-3.264826999999999
 30
0.999999
 11
-0.052262
 21
-3.264826999999999
 31
0.999999
  0
LINE
  5
671
  8
0
 39
0.999999
 10
-0.013199
 20
-3.264826999999999
 30
0.999999
 11
-0.013199
 21
-3.257013999999999
 31
0.999999
  0
LINE
  5
672
  8
0
 39
0.999999
 10
0.033676
 20
-3.132013999999999
 30
0.999999
 11
0.057113
 21
-3.108576999999999
 31
0.999999
  0
LINE
  5
673
  8
0
 39
0.999999
 10
0.057113
 20
-3.108576999999999
 30
0.999999
 11
0.119613
 21
-3.108576999999999
 31
0.999999
  0
LINE
  5
674
  8
0
 39
0.999999
 10
0.119613
 20
-3.108576999999999
 30
0.999999
 11
0.143051
 21
-3.132013999999999
 31
0.999999
  0
LINE
  5
675
  8
0
 39
0.999999
 10
0.143051
 20
-3.132013999999999
 30
0.999999
 11
0.143051
 21
-3.163263999999999
 31
0.999999
  0
LINE
  5
676
  8
0
 39
0.999999
 10
0.143051
 20
-3.163263999999999
 30
0.999999
 11
0.033676
 21
-3.210138999999999
 31
0.999999
  0
LINE
  5
677
  8
0
 39
0.999999
 10
0.033676
 20
-3.210138999999999
 30
0.999999
 11
0.033676
 21
-3.264826999999999
 31
0.999999
  0
LINE
  5
678
  8
0
 39
0.999999
 10
0.033676
 20
-3.264826999999999
 30
0.999999
 11
0.143051
 21
-3.264826999999999
 31
0.999999
  0
LINE
  5
679
  8
0
 39
0.999999
 10
0.283676
 20
-3.264826999999999
 30
0.999999
 11
0.283676
 21
-3.108576999999999
 31
0.999999
  0
LINE
  5
67A
  8
0
 39
0.999999
 10
0.283676
 20
-3.108576999999999
 30
0.999999
 11
0.189926
 21
-3.194513999999999
 31
0.999999
  0
LINE
  5
67B
  8
0
 39
0.999999
 10
0.189926
 20
-3.194513999999999
 30
0.999999
 11
0.299301
 21
-3.194513999999999
 31
0.999999
  0
LINE
  5
67C
  8
0
 39
0.999999
 10
0.455551
 20
-3.108576999999999
 30
0.999999
 11
0.346176
 21
-3.108576999999999
 31
0.999999
  0
LINE
  5
67D
  8
0
 39
0.999999
 10
0.346176
 20
-3.108576999999999
 30
0.999999
 11
0.346176
 21
-3.171076999999999
 31
0.999999
  0
LINE
  5
67E
  8
0
 39
0.999999
 10
0.346176
 20
-3.171076999999999
 30
0.999999
 11
0.4321130000000001
 21
-3.171076999999999
 31
0.999999
  0
LINE
  5
67F
  8
0
 39
0.999999
 10
0.4321130000000001
 20
-3.171076999999999
 30
0.999999
 11
0.455551
 21
-3.194513999999999
 31
0.999999
  0
LINE
  5
680
  8
0
 39
0.999999
 10
0.455551
 20
-3.194513999999999
 30
0.999999
 11
0.455551
 21
-3.241388999999999
 31
0.999999
  0
LINE
  5
681
  8
0
 39
0.999999
 10
0.455551
 20
-3.241388999999999
 30
0.999999
 11
0.4321130000000001
 21
-3.264826999999999
 31
0.999999
  0
LINE
  5
682
  8
0
 39
0.999999
 10
0.4321130000000001
 20
-3.264826999999999
 30
0.999999
 11
0.369613
 21
-3.264826999999999
 31
0.999999
  0
LINE
  5
683
  8
0
 39
0.999999
 10
0.369613
 20
-3.264826999999999
 30
0.999999
 11
0.346176
 21
-3.241388999999999
 31
0.999999
  0
LINE
  5
684
  8
0
 39
0.999999
 10
1.5522429999999989
 20
-3.2634389999999991
 30
0.999999
 11
1.5522429999999989
 21
-3.255625999999999
 31
0.999999
  0
LINE
  5
685
  8
0
 39
0.999999
 10
1.6928679999999989
 20
-3.2634389999999991
 30
0.999999
 11
1.6928679999999989
 21
-3.1071889999999991
 31
0.999999
  0
LINE
  5
686
  8
0
 39
0.999999
 10
1.6928679999999989
 20
-3.1071889999999991
 30
0.999999
 11
1.5991179999999989
 21
-3.193125999999999
 31
0.999999
  0
LINE
  5
687
  8
0
 39
0.999999
 10
1.5991179999999989
 20
-3.193125999999999
 30
0.999999
 11
1.7084929999999989
 21
-3.193125999999999
 31
0.999999
  0
LINE
  5
688
  8
0
 39
0.999999
 10
1.7553679999999989
 20
-3.130625999999999
 30
0.999999
 11
1.7788060000000001
 21
-3.1071889999999991
 31
0.999999
  0
LINE
  5
689
  8
0
 39
0.999999
 10
1.7788060000000001
 20
-3.1071889999999991
 30
0.999999
 11
1.8413060000000001
 21
-3.1071889999999991
 31
0.999999
  0
LINE
  5
68A
  8
0
 39
0.999999
 10
1.8413060000000001
 20
-3.1071889999999991
 30
0.999999
 11
1.8647429999999989
 21
-3.130625999999999
 31
0.999999
  0
LINE
  5
68B
  8
0
 39
0.999999
 10
1.8647429999999989
 20
-3.130625999999999
 30
0.999999
 11
1.8647429999999989
 21
-3.161875999999999
 31
0.999999
  0
LINE
  5
68C
  8
0
 39
0.999999
 10
1.8647429999999989
 20
-3.161875999999999
 30
0.999999
 11
1.7553679999999989
 21
-3.208750999999999
 31
0.999999
  0
LINE
  5
68D
  8
0
 39
0.999999
 10
1.7553679999999989
 20
-3.208750999999999
 30
0.999999
 11
1.7553679999999989
 21
-3.2634389999999991
 31
0.999999
  0
LINE
  5
68E
  8
0
 39
0.999999
 10
1.7553679999999989
 20
-3.2634389999999991
 30
0.999999
 11
1.8647429999999989
 21
-3.2634389999999991
 31
0.999999
  0
LINE
  5
68F
  8
0
 39
0.999999
 10
2.0209929999999989
 20
-3.1071889999999991
 30
0.999999
 11
1.9116179999999989
 21
-3.1071889999999991
 31
0.999999
  0
LINE
  5
690
  8
0
 39
0.999999
 10
1.9116179999999989
 20
-3.1071889999999991
 30
0.999999
 11
1.9116179999999989
 21
-3.1696889999999991
 31
0.999999
  0
LINE
  5
691
  8
0
 39
0.999999
 10
1.9116179999999989
 20
-3.1696889999999991
 30
0.999999
 11
1.9975560000000001
 21
-3.1696889999999991
 31
0.999999
  0
LINE
  5
692
  8
0
 39
0.999999
 10
1.9975560000000001
 20
-3.1696889999999991
 30
0.999999
 11
2.0209929999999989
 21
-3.193125999999999
 31
0.999999
  0
LINE
  5
693
  8
0
 39
0.999999
 10
2.0209929999999989
 20
-3.193125999999999
 30
0.999999
 11
2.0209929999999989
 21
-3.240000999999999
 31
0.999999
  0
LINE
  5
694
  8
0
 39
0.999999
 10
2.0209929999999989
 20
-3.240000999999999
 30
0.999999
 11
1.9975560000000001
 21
-3.2634389999999991
 31
0.999999
  0
LINE
  5
695
  8
0
 39
0.999999
 10
1.9975560000000001
 20
-3.2634389999999991
 30
0.999999
 11
1.9350560000000001
 21
-3.2634389999999991
 31
0.999999
  0
LINE
  5
696
  8
0
 39
0.999999
 10
1.9350560000000001
 20
-3.2634389999999991
 30
0.999999
 11
1.9116179999999989
 21
-3.240000999999999
 31
0.999999
  0
LINE
  5
697
  8
0
 10
-4.092473
 20
-3.8280329999999991
 30
0.0
 11
-4.092473
 21
-3.671783
 31
0.0
  0
LINE
  5
698
  8
0
 10
-4.1471599999999986
 20
-3.671783
 30
0.0
 11
-4.0377849999999986
 21
-3.671783
 31
0.0
  0
LINE
  5
699
  8
0
 10
-3.8815349999999991
 20
-3.671783
 30
0.0
 11
-3.8815349999999991
 21
-3.8280329999999991
 31
0.0
  0
LINE
  5
69A
  8
0
 10
-3.9909099999999991
 20
-3.8280329999999991
 30
0.0
 11
-3.9909099999999991
 21
-3.671783
 31
0.0
  0
LINE
  5
69B
  8
0
 10
-3.9909099999999991
 20
-3.749908
 30
0.0
 11
-3.8815349999999991
 21
-3.749908
 31
0.0
  0
LINE
  5
69C
  8
0
 10
-3.7252849999999991
 20
-3.671783
 30
0.0
 11
-3.8346599999999991
 21
-3.671783
 31
0.0
  0
LINE
  5
69D
  8
0
 10
-3.8346599999999991
 20
-3.671783
 30
0.0
 11
-3.8346599999999991
 21
-3.8280329999999991
 31
0.0
  0
LINE
  5
69E
  8
0
 10
-3.8346599999999991
 20
-3.8280329999999991
 30
0.0
 11
-3.7252849999999991
 21
-3.8280329999999991
 31
0.0
  0
LINE
  5
69F
  8
0
 10
-3.8346599999999991
 20
-3.749908
 30
0.0
 11
-3.764348
 21
-3.749908
 31
0.0
  0
LINE
  5
6A0
  8
0
 10
-3.527159999999999
 20
-3.671783
 30
0.0
 11
-3.527159999999999
 21
-3.6952210000000001
 31
0.0
  0
LINE
  5
6A1
  8
0
 10
-3.495909999999999
 20
-3.671783
 30
0.0
 11
-3.495909999999999
 21
-3.6952210000000001
 31
0.0
  0
LINE
  5
6A2
  8
0
 10
-3.449034999999999
 20
-3.671783
 30
0.0
 11
-3.449034999999999
 21
-3.8280329999999991
 31
0.0
  0
LINE
  5
6A3
  8
0
 10
-3.449034999999999
 20
-3.8280329999999991
 30
0.0
 11
-3.339659999999999
 21
-3.8280329999999991
 31
0.0
  0
LINE
  5
6A4
  8
0
 10
-3.292784999999999
 20
-3.671783
 30
0.0
 11
-3.292784999999999
 21
-3.6952210000000001
 31
0.0
  0
LINE
  5
6A5
  8
0
 10
-3.261534999999999
 20
-3.671783
 30
0.0
 11
-3.261534999999999
 21
-3.6952210000000001
 31
0.0
  0
LINE
  5
6A6
  8
0
 10
-3.136534999999999
 20
-3.8280329999999991
 30
0.0
 11
-3.136534999999999
 21
-3.671783
 31
0.0
  0
LINE
  5
6A7
  8
0
 10
-3.136534999999999
 20
-3.671783
 30
0.0
 11
-3.050597999999999
 21
-3.671783
 31
0.0
  0
LINE
  5
6A8
  8
0
 10
-3.050597999999999
 20
-3.671783
 30
0.0
 11
-3.027159999999999
 21
-3.6952210000000001
 31
0.0
  0
LINE
  5
6A9
  8
0
 10
-3.027159999999999
 20
-3.6952210000000001
 30
0.0
 11
-3.027159999999999
 21
-3.8045960000000001
 31
0.0
  0
LINE
  5
6AA
  8
0
 10
-3.027159999999999
 20
-3.8045960000000001
 30
0.0
 11
-3.050597999999999
 21
-3.8280329999999991
 31
0.0
  0
LINE
  5
6AB
  8
0
 10
-3.050597999999999
 20
-3.8280329999999991
 30
0.0
 11
-3.136534999999999
 21
-3.8280329999999991
 31
0.0
  0
LINE
  5
6AC
  8
0
 10
-2.870909999999999
 20
-3.671783
 30
0.0
 11
-2.980284999999999
 21
-3.671783
 31
0.0
  0
LINE
  5
6AD
  8
0
 10
-2.980284999999999
 20
-3.671783
 30
0.0
 11
-2.980284999999999
 21
-3.8280329999999991
 31
0.0
  0
LINE
  5
6AE
  8
0
 10
-2.980284999999999
 20
-3.8280329999999991
 30
0.0
 11
-2.870909999999999
 21
-3.8280329999999991
 31
0.0
  0
LINE
  5
6AF
  8
0
 10
-2.980284999999999
 20
-3.749908
 30
0.0
 11
-2.909972999999999
 21
-3.749908
 31
0.0
  0
LINE
  5
6B0
  8
0
 10
-2.824034999999999
 20
-3.8280329999999991
 30
0.0
 11
-2.824034999999999
 21
-3.671783
 31
0.0
  0
LINE
  5
6B1
  8
0
 10
-2.824034999999999
 20
-3.671783
 30
0.0
 11
-2.714659999999999
 21
-3.671783
 31
0.0
  0
LINE
  5
6B2
  8
0
 10
-2.824034999999999
 20
-3.749908
 30
0.0
 11
-2.769347999999999
 21
-3.749908
 31
0.0
  0
LINE
  5
6B3
  8
0
 10
-2.628722999999999
 20
-3.8280329999999991
 30
0.0
 11
-2.659972999999999
 21
-3.8280329999999991
 31
0.0
  0
LINE
  5
6B4
  8
0
 10
-2.644347999999999
 20
-3.8280329999999991
 30
0.0
 11
-2.644347999999999
 21
-3.671783
 31
0.0
  0
LINE
  5
6B5
  8
0
 10
-2.628722999999999
 20
-3.671783
 30
0.0
 11
-2.659972999999999
 21
-3.671783
 31
0.0
  0
LINE
  5
6B6
  8
0
 10
-2.574034999999999
 20
-3.8280329999999991
 30
0.0
 11
-2.574034999999999
 21
-3.671783
 31
0.0
  0
LINE
  5
6B7
  8
0
 10
-2.574034999999999
 20
-3.671783
 30
0.0
 11
-2.464659999999999
 21
-3.8280329999999991
 31
0.0
  0
LINE
  5
6B8
  8
0
 10
-2.464659999999999
 20
-3.8280329999999991
 30
0.0
 11
-2.464659999999999
 21
-3.671783
 31
0.0
  0
LINE
  5
6B9
  8
0
 10
-2.308409999999999
 20
-3.671783
 30
0.0
 11
-2.417784999999999
 21
-3.671783
 31
0.0
  0
LINE
  5
6BA
  8
0
 10
-2.417784999999999
 20
-3.671783
 30
0.0
 11
-2.417784999999999
 21
-3.8280329999999991
 31
0.0
  0
LINE
  5
6BB
  8
0
 10
-2.417784999999999
 20
-3.8280329999999991
 30
0.0
 11
-2.308409999999999
 21
-3.8280329999999991
 31
0.0
  0
LINE
  5
6BC
  8
0
 10
-2.417784999999999
 20
-3.749908
 30
0.0
 11
-2.347472999999999
 21
-3.749908
 31
0.0
  0
LINE
  5
6BD
  8
0
 10
-2.152159999999999
 20
-3.6952210000000001
 30
0.0
 11
-2.175597999999999
 21
-3.671783
 31
0.0
  0
LINE
  5
6BE
  8
0
 10
-2.175597999999999
 20
-3.671783
 30
0.0
 11
-2.238097999999999
 21
-3.671783
 31
0.0
  0
LINE
  5
6BF
  8
0
 10
-2.238097999999999
 20
-3.671783
 30
0.0
 11
-2.261534999999999
 21
-3.6952210000000001
 31
0.0
  0
LINE
  5
6C0
  8
0
 10
-2.261534999999999
 20
-3.6952210000000001
 30
0.0
 11
-2.261534999999999
 21
-3.7264710000000001
 31
0.0
  0
LINE
  5
6C1
  8
0
 10
-2.261534999999999
 20
-3.7264710000000001
 30
0.0
 11
-2.238097999999999
 21
-3.749908
 31
0.0
  0
LINE
  5
6C2
  8
0
 10
-2.238097999999999
 20
-3.749908
 30
0.0
 11
-2.175597999999999
 21
-3.749908
 31
0.0
  0
LINE
  5
6C3
  8
0
 10
-2.175597999999999
 20
-3.749908
 30
0.0
 11
-2.152159999999999
 21
-3.7733460000000001
 31
0.0
  0
LINE
  5
6C4
  8
0
 10
-2.152159999999999
 20
-3.7733460000000001
 30
0.0
 11
-2.152159999999999
 21
-3.8045960000000001
 31
0.0
  0
LINE
  5
6C5
  8
0
 10
-2.152159999999999
 20
-3.8045960000000001
 30
0.0
 11
-2.175597999999999
 21
-3.8280329999999991
 31
0.0
  0
LINE
  5
6C6
  8
0
 10
-2.175597999999999
 20
-3.8280329999999991
 30
0.0
 11
-2.238097999999999
 21
-3.8280329999999991
 31
0.0
  0
LINE
  5
6C7
  8
0
 10
-2.238097999999999
 20
-3.8280329999999991
 30
0.0
 11
-2.261534999999999
 21
-3.8045960000000001
 31
0.0
  0
LINE
  5
6C8
  8
0
 10
-1.8993479999999989
 20
-3.8280329999999991
 30
0.0
 11
-1.8993479999999989
 21
-3.671783
 31
0.0
  0
LINE
  5
6C9
  8
0
 10
-1.9540349999999991
 20
-3.671783
 30
0.0
 11
-1.8446599999999991
 21
-3.671783
 31
0.0
  0
LINE
  5
6CA
  8
0
 10
-1.6884099999999991
 20
-3.671783
 30
0.0
 11
-1.6884099999999991
 21
-3.8280329999999991
 31
0.0
  0
LINE
  5
6CB
  8
0
 10
-1.7977849999999991
 20
-3.8280329999999991
 30
0.0
 11
-1.7977849999999991
 21
-3.671783
 31
0.0
  0
LINE
  5
6CC
  8
0
 10
-1.7977849999999991
 20
-3.749908
 30
0.0
 11
-1.6884099999999991
 21
-3.749908
 31
0.0
  0
LINE
  5
6CD
  8
0
 10
-1.6415349999999991
 20
-3.8280329999999991
 30
0.0
 11
-1.6024729999999989
 21
-3.671783
 31
0.0
  0
LINE
  5
6CE
  8
0
 10
-1.6024729999999989
 20
-3.671783
 30
0.0
 11
-1.5712229999999989
 21
-3.671783
 31
0.0
  0
LINE
  5
6CF
  8
0
 10
-1.5712229999999989
 20
-3.671783
 30
0.0
 11
-1.53216
 21
-3.8280329999999991
 31
0.0
  0
LINE
  5
6D0
  8
0
 10
-1.623956999999999
 20
-3.7577210000000001
 30
0.0
 11
-1.5497379999999989
 21
-3.7577210000000001
 31
0.0
  0
LINE
  5
6D1
  8
0
 10
-1.4305979999999989
 20
-3.8280329999999991
 30
0.0
 11
-1.4305979999999989
 21
-3.671783
 31
0.0
  0
LINE
  5
6D2
  8
0
 10
-1.485285
 20
-3.671783
 30
0.0
 11
-1.3759099999999991
 21
-3.671783
 31
0.0
  0
LINE
  5
6D3
  8
0
 10
-1.123097999999999
 20
-3.8280329999999991
 30
0.0
 11
-1.123097999999999
 21
-3.671783
 31
0.0
  0
LINE
  5
6D4
  8
0
 10
-1.1777850000000001
 20
-3.671783
 30
0.0
 11
-1.0684100000000001
 21
-3.671783
 31
0.0
  0
LINE
  5
6D5
  8
0
 10
-0.91216
 20
-3.671783
 30
0.0
 11
-0.91216
 21
-3.8280329999999991
 31
0.0
  0
LINE
  5
6D6
  8
0
 10
-1.0215350000000001
 20
-3.8280329999999991
 30
0.0
 11
-1.0215350000000001
 21
-3.671783
 31
0.0
  0
LINE
  5
6D7
  8
0
 10
-1.0215350000000001
 20
-3.749908
 30
0.0
 11
-0.91216
 21
-3.749908
 31
0.0
  0
LINE
  5
6D8
  8
0
 10
-0.8262229999999998
 20
-3.8280329999999991
 30
0.0
 11
-0.8574729999999998
 21
-3.8280329999999991
 31
0.0
  0
LINE
  5
6D9
  8
0
 10
-0.8418479999999998
 20
-3.8280329999999991
 30
0.0
 11
-0.8418479999999998
 21
-3.671783
 31
0.0
  0
LINE
  5
6DA
  8
0
 10
-0.8262229999999998
 20
-3.671783
 30
0.0
 11
-0.8574729999999998
 21
-3.671783
 31
0.0
  0
LINE
  5
6DB
  8
0
 10
-0.6621600000000001
 20
-3.6952210000000001
 30
0.0
 11
-0.6855979999999999
 21
-3.671783
 31
0.0
  0
LINE
  5
6DC
  8
0
 10
-0.6855979999999999
 20
-3.671783
 30
0.0
 11
-0.7480979999999999
 21
-3.671783
 31
0.0
  0
LINE
  5
6DD
  8
0
 10
-0.7480979999999999
 20
-3.671783
 30
0.0
 11
-0.7715350000000001
 21
-3.6952210000000001
 31
0.0
  0
LINE
  5
6DE
  8
0
 10
-0.7715350000000001
 20
-3.6952210000000001
 30
0.0
 11
-0.7715350000000001
 21
-3.7264710000000001
 31
0.0
  0
LINE
  5
6DF
  8
0
 10
-0.7715350000000001
 20
-3.7264710000000001
 30
0.0
 11
-0.7480979999999999
 21
-3.749908
 31
0.0
  0
LINE
  5
6E0
  8
0
 10
-0.7480979999999999
 20
-3.749908
 30
0.0
 11
-0.6855979999999999
 21
-3.749908
 31
0.0
  0
LINE
  5
6E1
  8
0
 10
-0.6855979999999999
 20
-3.749908
 30
0.0
 11
-0.6621600000000001
 21
-3.7733460000000001
 31
0.0
  0
LINE
  5
6E2
  8
0
 10
-0.6621600000000001
 20
-3.7733460000000001
 30
0.0
 11
-0.6621600000000001
 21
-3.8045960000000001
 31
0.0
  0
LINE
  5
6E3
  8
0
 10
-0.6621600000000001
 20
-3.8045960000000001
 30
0.0
 11
-0.6855979999999999
 21
-3.8280329999999991
 31
0.0
  0
LINE
  5
6E4
  8
0
 10
-0.6855979999999999
 20
-3.8280329999999991
 30
0.0
 11
-0.7480979999999999
 21
-3.8280329999999991
 31
0.0
  0
LINE
  5
6E5
  8
0
 10
-0.7480979999999999
 20
-3.8280329999999991
 30
0.0
 11
-0.7715350000000001
 21
-3.8045960000000001
 31
0.0
  0
LINE
  5
6E6
  8
0
 10
-0.4640350000000001
 20
-3.8280329999999991
 30
0.0
 11
-0.4640350000000001
 21
-3.671783
 31
0.0
  0
LINE
  5
6E7
  8
0
 10
-0.4640350000000001
 20
-3.671783
 30
0.0
 11
-0.378098
 21
-3.671783
 31
0.0
  0
LINE
  5
6E8
  8
0
 10
-0.378098
 20
-3.671783
 30
0.0
 11
-0.35466
 21
-3.6952210000000001
 31
0.0
  0
LINE
  5
6E9
  8
0
 10
-0.35466
 20
-3.6952210000000001
 30
0.0
 11
-0.35466
 21
-3.7264710000000001
 31
0.0
  0
LINE
  5
6EA
  8
0
 10
-0.35466
 20
-3.7264710000000001
 30
0.0
 11
-0.378098
 21
-3.749908
 31
0.0
  0
LINE
  5
6EB
  8
0
 10
-0.378098
 20
-3.749908
 30
0.0
 11
-0.4640350000000001
 21
-3.749908
 31
0.0
  0
LINE
  5
6EC
  8
0
 10
-0.307785
 20
-3.671783
 30
0.0
 11
-0.307785
 21
-3.8045960000000001
 31
0.0
  0
LINE
  5
6ED
  8
0
 10
-0.307785
 20
-3.8045960000000001
 30
0.0
 11
-0.284348
 21
-3.8280329999999991
 31
0.0
  0
LINE
  5
6EE
  8
0
 10
-0.284348
 20
-3.8280329999999991
 30
0.0
 11
-0.221848
 21
-3.8280329999999991
 31
0.0
  0
LINE
  5
6EF
  8
0
 10
-0.221848
 20
-3.8280329999999991
 30
0.0
 11
-0.19841
 21
-3.8045960000000001
 31
0.0
  0
LINE
  5
6F0
  8
0
 10
-0.19841
 20
-3.8045960000000001
 30
0.0
 11
-0.19841
 21
-3.671783
 31
0.0
  0
LINE
  5
6F1
  8
0
 10
-0.151535
 20
-3.8280329999999991
 30
0.0
 11
-0.151535
 21
-3.671783
 31
0.0
  0
LINE
  5
6F2
  8
0
 10
-0.151535
 20
-3.671783
 30
0.0
 11
-0.04216
 21
-3.8280329999999991
 31
0.0
  0
LINE
  5
6F3
  8
0
 10
-0.04216
 20
-3.8280329999999991
 30
0.0
 11
-0.04216
 21
-3.671783
 31
0.0
  0
LINE
  5
6F4
  8
0
 10
0.11409
 20
-3.6952210000000001
 30
0.0
 11
0.090652
 21
-3.671783
 31
0.0
  0
LINE
  5
6F5
  8
0
 10
0.090652
 20
-3.671783
 30
0.0
 11
0.028152
 21
-3.671783
 31
0.0
  0
LINE
  5
6F6
  8
0
 10
0.028152
 20
-3.671783
 30
0.0
 11
0.004715
 21
-3.6952210000000001
 31
0.0
  0
LINE
  5
6F7
  8
0
 10
0.004715
 20
-3.6952210000000001
 30
0.0
 11
0.004715
 21
-3.8045960000000001
 31
0.0
  0
LINE
  5
6F8
  8
0
 10
0.004715
 20
-3.8045960000000001
 30
0.0
 11
0.028152
 21
-3.8280329999999991
 31
0.0
  0
LINE
  5
6F9
  8
0
 10
0.028152
 20
-3.8280329999999991
 30
0.0
 11
0.090652
 21
-3.8280329999999991
 31
0.0
  0
LINE
  5
6FA
  8
0
 10
0.090652
 20
-3.8280329999999991
 30
0.0
 11
0.11409
 21
-3.8045960000000001
 31
0.0
  0
LINE
  5
6FB
  8
0
 10
0.27034
 20
-3.671783
 30
0.0
 11
0.27034
 21
-3.8280329999999991
 31
0.0
  0
LINE
  5
6FC
  8
0
 10
0.160965
 20
-3.8280329999999991
 30
0.0
 11
0.160965
 21
-3.671783
 31
0.0
  0
LINE
  5
6FD
  8
0
 10
0.160965
 20
-3.749908
 30
0.0
 11
0.27034
 21
-3.749908
 31
0.0
  0
LINE
  5
6FE
  8
0
 10
0.57784
 20
-3.6952210000000001
 30
0.0
 11
0.5544020000000001
 21
-3.671783
 31
0.0
  0
LINE
  5
6FF
  8
0
 10
0.5544020000000001
 20
-3.671783
 30
0.0
 11
0.4919020000000001
 21
-3.671783
 31
0.0
  0
LINE
  5
700
  8
0
 10
0.4919020000000001
 20
-3.671783
 30
0.0
 11
0.468465
 21
-3.6952210000000001
 31
0.0
  0
LINE
  5
701
  8
0
 10
0.468465
 20
-3.6952210000000001
 30
0.0
 11
0.468465
 21
-3.8045960000000001
 31
0.0
  0
LINE
  5
702
  8
0
 10
0.468465
 20
-3.8045960000000001
 30
0.0
 11
0.4919020000000001
 21
-3.8280329999999991
 31
0.0
  0
LINE
  5
703
  8
0
 10
0.4919020000000001
 20
-3.8280329999999991
 30
0.0
 11
0.5544020000000001
 21
-3.8280329999999991
 31
0.0
  0
LINE
  5
704
  8
0
 10
0.5544020000000001
 20
-3.8280329999999991
 30
0.0
 11
0.57784
 21
-3.8045960000000001
 31
0.0
  0
LINE
  5
705
  8
0
 10
0.624715
 20
-3.8280329999999991
 30
0.0
 11
0.6637770000000001
 21
-3.671783
 31
0.0
  0
LINE
  5
706
  8
0
 10
0.6637770000000001
 20
-3.671783
 30
0.0
 11
0.6950270000000001
 21
-3.671783
 31
0.0
  0
LINE
  5
707
  8
0
 10
0.6950270000000001
 20
-3.671783
 30
0.0
 11
0.73409
 21
-3.8280329999999991
 31
0.0
  0
LINE
  5
708
  8
0
 10
0.642293
 20
-3.7577210000000001
 30
0.0
 11
0.716512
 21
-3.7577210000000001
 31
0.0
  0
LINE
  5
709
  8
0
 10
0.780965
 20
-3.8280329999999991
 30
0.0
 11
0.780965
 21
-3.671783
 31
0.0
  0
LINE
  5
70A
  8
0
 10
0.780965
 20
-3.671783
 30
0.0
 11
0.8903399999999999
 21
-3.8280329999999991
 31
0.0
  0
LINE
  5
70B
  8
0
 10
0.8903399999999999
 20
-3.8280329999999991
 30
0.0
 11
0.8903399999999999
 21
-3.671783
 31
0.0
  0
LINE
  5
70C
  8
0
 10
1.088465
 20
-3.8280329999999991
 30
0.0
 11
1.088465
 21
-3.671783
 31
0.0
  0
LINE
  5
70D
  8
0
 10
1.088465
 20
-3.671783
 30
0.0
 11
1.1744019999999991
 21
-3.671783
 31
0.0
  0
LINE
  5
70E
  8
0
 10
1.1744019999999991
 20
-3.671783
 30
0.0
 11
1.19784
 21
-3.6952210000000001
 31
0.0
  0
LINE
  5
70F
  8
0
 10
1.19784
 20
-3.6952210000000001
 30
0.0
 11
1.19784
 21
-3.7264710000000001
 31
0.0
  0
LINE
  5
710
  8
0
 10
1.19784
 20
-3.7264710000000001
 30
0.0
 11
1.1744019999999991
 21
-3.749908
 31
0.0
  0
LINE
  5
711
  8
0
 10
1.1744019999999991
 20
-3.749908
 30
0.0
 11
1.19784
 21
-3.7733460000000001
 31
0.0
  0
LINE
  5
712
  8
0
 10
1.19784
 20
-3.7733460000000001
 30
0.0
 11
1.19784
 21
-3.8045960000000001
 31
0.0
  0
LINE
  5
713
  8
0
 10
1.19784
 20
-3.8045960000000001
 30
0.0
 11
1.1744019999999991
 21
-3.8280329999999991
 31
0.0
  0
LINE
  5
714
  8
0
 10
1.1744019999999991
 20
-3.8280329999999991
 30
0.0
 11
1.088465
 21
-3.8280329999999991
 31
0.0
  0
LINE
  5
715
  8
0
 10
1.1744019999999991
 20
-3.749908
 30
0.0
 11
1.088465
 21
-3.749908
 31
0.0
  0
LINE
  5
716
  8
0
 10
1.35409
 20
-3.671783
 30
0.0
 11
1.244715
 21
-3.671783
 31
0.0
  0
LINE
  5
717
  8
0
 10
1.244715
 20
-3.671783
 30
0.0
 11
1.244715
 21
-3.8280329999999991
 31
0.0
  0
LINE
  5
718
  8
0
 10
1.244715
 20
-3.8280329999999991
 30
0.0
 11
1.35409
 21
-3.8280329999999991
 31
0.0
  0
LINE
  5
719
  8
0
 10
1.244715
 20
-3.749908
 30
0.0
 11
1.3150269999999991
 21
-3.749908
 31
0.0
  0
LINE
  5
71A
  8
0
 10
1.552214999999999
 20
-3.671783
 30
0.0
 11
1.552214999999999
 21
-3.8045960000000001
 31
0.0
  0
LINE
  5
71B
  8
0
 10
1.552214999999999
 20
-3.8045960000000001
 30
0.0
 11
1.5756520000000001
 21
-3.8280329999999991
 31
0.0
  0
LINE
  5
71C
  8
0
 10
1.5756520000000001
 20
-3.8280329999999991
 30
0.0
 11
1.6381520000000001
 21
-3.8280329999999991
 31
0.0
  0
LINE
  5
71D
  8
0
 10
1.6381520000000001
 20
-3.8280329999999991
 30
0.0
 11
1.6615899999999999
 21
-3.8045960000000001
 31
0.0
  0
LINE
  5
71E
  8
0
 10
1.6615899999999999
 20
-3.8045960000000001
 30
0.0
 11
1.6615899999999999
 21
-3.671783
 31
0.0
  0
LINE
  5
71F
  8
0
 10
1.8178399999999999
 20
-3.6952210000000001
 30
0.0
 11
1.7944020000000001
 21
-3.671783
 31
0.0
  0
LINE
  5
720
  8
0
 10
1.7944020000000001
 20
-3.671783
 30
0.0
 11
1.7319020000000001
 21
-3.671783
 31
0.0
  0
LINE
  5
721
  8
0
 10
1.7319020000000001
 20
-3.671783
 30
0.0
 11
1.7084649999999999
 21
-3.6952210000000001
 31
0.0
  0
LINE
  5
722
  8
0
 10
1.7084649999999999
 20
-3.6952210000000001
 30
0.0
 11
1.7084649999999999
 21
-3.7264710000000001
 31
0.0
  0
LINE
  5
723
  8
0
 10
1.7084649999999999
 20
-3.7264710000000001
 30
0.0
 11
1.7319020000000001
 21
-3.749908
 31
0.0
  0
LINE
  5
724
  8
0
 10
1.7319020000000001
 20
-3.749908
 30
0.0
 11
1.7944020000000001
 21
-3.749908
 31
0.0
  0
LINE
  5
725
  8
0
 10
1.7944020000000001
 20
-3.749908
 30
0.0
 11
1.8178399999999999
 21
-3.7733460000000001
 31
0.0
  0
LINE
  5
726
  8
0
 10
1.8178399999999999
 20
-3.7733460000000001
 30
0.0
 11
1.8178399999999999
 21
-3.8045960000000001
 31
0.0
  0
LINE
  5
727
  8
0
 10
1.8178399999999999
 20
-3.8045960000000001
 30
0.0
 11
1.7944020000000001
 21
-3.8280329999999991
 31
0.0
  0
LINE
  5
728
  8
0
 10
1.7944020000000001
 20
-3.8280329999999991
 30
0.0
 11
1.7319020000000001
 21
-3.8280329999999991
 31
0.0
  0
LINE
  5
729
  8
0
 10
1.7319020000000001
 20
-3.8280329999999991
 30
0.0
 11
1.7084649999999999
 21
-3.8045960000000001
 31
0.0
  0
LINE
  5
72A
  8
0
 10
1.9740899999999999
 20
-3.671783
 30
0.0
 11
1.8647149999999999
 21
-3.671783
 31
0.0
  0
LINE
  5
72B
  8
0
 10
1.8647149999999999
 20
-3.671783
 30
0.0
 11
1.8647149999999999
 21
-3.8280329999999991
 31
0.0
  0
LINE
  5
72C
  8
0
 10
1.8647149999999999
 20
-3.8280329999999991
 30
0.0
 11
1.9740899999999999
 21
-3.8280329999999991
 31
0.0
  0
LINE
  5
72D
  8
0
 10
1.8647149999999999
 20
-3.749908
 30
0.0
 11
1.9350270000000001
 21
-3.749908
 31
0.0
  0
LINE
  5
72E
  8
0
 10
2.0209649999999999
 20
-3.8280329999999991
 30
0.0
 11
2.0209649999999999
 21
-3.671783
 31
0.0
  0
LINE
  5
72F
  8
0
 10
2.0209649999999999
 20
-3.671783
 30
0.0
 11
2.1069019999999989
 21
-3.671783
 31
0.0
  0
LINE
  5
730
  8
0
 10
2.1069019999999989
 20
-3.671783
 30
0.0
 11
2.1303399999999999
 21
-3.6952210000000001
 31
0.0
  0
LINE
  5
731
  8
0
 10
2.1303399999999999
 20
-3.6952210000000001
 30
0.0
 11
2.1303399999999999
 21
-3.8045960000000001
 31
0.0
  0
LINE
  5
732
  8
0
 10
2.1303399999999999
 20
-3.8045960000000001
 30
0.0
 11
2.1069019999999989
 21
-3.8280329999999991
 31
0.0
  0
LINE
  5
733
  8
0
 10
2.1069019999999989
 20
-3.8280329999999991
 30
0.0
 11
2.0209649999999999
 21
-3.8280329999999991
 31
0.0
  0
LINE
  5
734
  8
0
 10
2.328465
 20
-3.8280329999999991
 30
0.0
 11
2.367526999999999
 21
-3.671783
 31
0.0
  0
LINE
  5
735
  8
0
 10
2.367526999999999
 20
-3.671783
 30
0.0
 11
2.398776999999999
 21
-3.671783
 31
0.0
  0
LINE
  5
736
  8
0
 10
2.398776999999999
 20
-3.671783
 30
0.0
 11
2.43784
 21
-3.8280329999999991
 31
0.0
  0
LINE
  5
737
  8
0
 10
2.346042999999999
 20
-3.7577210000000001
 30
0.0
 11
2.4202619999999988
 21
-3.7577210000000001
 31
0.0
  0
LINE
  5
738
  8
0
 10
2.59409
 20
-3.6952210000000001
 30
0.0
 11
2.570651999999999
 21
-3.671783
 31
0.0
  0
LINE
  5
739
  8
0
 10
2.570651999999999
 20
-3.671783
 30
0.0
 11
2.508151999999999
 21
-3.671783
 31
0.0
  0
LINE
  5
73A
  8
0
 10
2.508151999999999
 20
-3.671783
 30
0.0
 11
2.484715
 21
-3.6952210000000001
 31
0.0
  0
LINE
  5
73B
  8
0
 10
2.484715
 20
-3.6952210000000001
 30
0.0
 11
2.484715
 21
-3.7264710000000001
 31
0.0
  0
LINE
  5
73C
  8
0
 10
2.484715
 20
-3.7264710000000001
 30
0.0
 11
2.508151999999999
 21
-3.749908
 31
0.0
  0
LINE
  5
73D
  8
0
 10
2.508151999999999
 20
-3.749908
 30
0.0
 11
2.570651999999999
 21
-3.749908
 31
0.0
  0
LINE
  5
73E
  8
0
 10
2.570651999999999
 20
-3.749908
 30
0.0
 11
2.59409
 21
-3.7733460000000001
 31
0.0
  0
LINE
  5
73F
  8
0
 10
2.59409
 20
-3.7733460000000001
 30
0.0
 11
2.59409
 21
-3.8045960000000001
 31
0.0
  0
LINE
  5
740
  8
0
 10
2.59409
 20
-3.8045960000000001
 30
0.0
 11
2.570651999999999
 21
-3.8280329999999991
 31
0.0
  0
LINE
  5
741
  8
0
 10
2.570651999999999
 20
-3.8280329999999991
 30
0.0
 11
2.508151999999999
 21
-3.8280329999999991
 31
0.0
  0
LINE
  5
742
  8
0
 10
2.508151999999999
 20
-3.8280329999999991
 30
0.0
 11
2.484715
 21
-3.8045960000000001
 31
0.0
  0
LINE
  5
743
  8
0
 10
2.7922150000000001
 20
-3.8280329999999991
 30
0.0
 11
2.831277
 21
-3.671783
 31
0.0
  0
LINE
  5
744
  8
0
 10
2.831277
 20
-3.671783
 30
0.0
 11
2.862527
 21
-3.671783
 31
0.0
  0
LINE
  5
745
  8
0
 10
2.862527
 20
-3.671783
 30
0.0
 11
2.9015900000000001
 21
-3.8280329999999991
 31
0.0
  0
LINE
  5
746
  8
0
 10
2.8097929999999991
 20
-3.7577210000000001
 30
0.0
 11
2.8840119999999989
 21
-3.7577210000000001
 31
0.0
  0
LINE
  5
747
  8
0
 10
3.0997150000000002
 20
-3.671783
 30
0.0
 11
3.0997150000000002
 21
-3.8280329999999991
 31
0.0
  0
LINE
  5
748
  8
0
 10
3.0997150000000002
 20
-3.8280329999999991
 30
0.0
 11
3.2090900000000002
 21
-3.8280329999999991
 31
0.0
  0
LINE
  5
749
  8
0
 10
3.2559650000000002
 20
-3.8280329999999991
 30
0.0
 11
3.2950269999999988
 21
-3.671783
 31
0.0
  0
LINE
  5
74A
  8
0
 10
3.2950269999999988
 20
-3.671783
 30
0.0
 11
3.3262769999999988
 21
-3.671783
 31
0.0
  0
LINE
  5
74B
  8
0
 10
3.3262769999999988
 20
-3.671783
 30
0.0
 11
3.3653400000000002
 21
-3.8280329999999991
 31
0.0
  0
LINE
  5
74C
  8
0
 10
3.2735430000000001
 20
-3.7577210000000001
 30
0.0
 11
3.3477619999999999
 21
-3.7577210000000001
 31
0.0
  0
LINE
  5
74D
  8
0
 10
3.4122150000000002
 20
-3.671783
 30
0.0
 11
3.4669019999999988
 21
-3.749908
 31
0.0
  0
LINE
  5
74E
  8
0
 10
3.4669019999999988
 20
-3.749908
 30
0.0
 11
3.4669019999999988
 21
-3.8280329999999991
 31
0.0
  0
LINE
  5
74F
  8
0
 10
3.4669019999999988
 20
-3.749908
 30
0.0
 11
3.5215900000000002
 21
-3.671783
 31
0.0
  0
LINE
  5
750
  8
0
 10
3.5919019999999988
 20
-3.671783
 30
0.0
 11
3.5684650000000002
 21
-3.6952210000000001
 31
0.0
  0
LINE
  5
751
  8
0
 10
3.5684650000000002
 20
-3.6952210000000001
 30
0.0
 11
3.5684650000000002
 21
-3.8045960000000001
 31
0.0
  0
LINE
  5
752
  8
0
 10
3.5684650000000002
 20
-3.8045960000000001
 30
0.0
 11
3.5919019999999988
 21
-3.8280329999999991
 31
0.0
  0
LINE
  5
753
  8
0
 10
3.5919019999999988
 20
-3.8280329999999991
 30
0.0
 11
3.6544019999999988
 21
-3.8280329999999991
 31
0.0
  0
LINE
  5
754
  8
0
 10
3.6544019999999988
 20
-3.8280329999999991
 30
0.0
 11
3.6778400000000002
 21
-3.8045960000000001
 31
0.0
  0
LINE
  5
755
  8
0
 10
3.6778400000000002
 20
-3.8045960000000001
 30
0.0
 11
3.6778400000000002
 21
-3.6952210000000001
 31
0.0
  0
LINE
  5
756
  8
0
 10
3.6778400000000002
 20
-3.6952210000000001
 30
0.0
 11
3.6544019999999988
 21
-3.671783
 31
0.0
  0
LINE
  5
757
  8
0
 10
3.6544019999999988
 20
-3.671783
 30
0.0
 11
3.5919019999999988
 21
-3.671783
 31
0.0
  0
LINE
  5
758
  8
0
 10
3.7247150000000002
 20
-3.671783
 30
0.0
 11
3.7794019999999988
 21
-3.8280329999999991
 31
0.0
  0
LINE
  5
759
  8
0
 10
3.7794019999999988
 20
-3.8280329999999991
 30
0.0
 11
3.8340900000000002
 21
-3.671783
 31
0.0
  0
LINE
  5
75A
  8
0
 10
3.9903400000000002
 20
-3.671783
 30
0.0
 11
3.8809650000000002
 21
-3.671783
 31
0.0
  0
LINE
  5
75B
  8
0
 10
3.8809650000000002
 20
-3.671783
 30
0.0
 11
3.8809650000000002
 21
-3.8280329999999991
 31
0.0
  0
LINE
  5
75C
  8
0
 10
3.8809650000000002
 20
-3.8280329999999991
 30
0.0
 11
3.9903400000000002
 21
-3.8280329999999991
 31
0.0
  0
LINE
  5
75D
  8
0
 10
3.8809650000000002
 20
-3.749908
 30
0.0
 11
3.9512769999999988
 21
-3.749908
 31
0.0
  0
LINE
  5
75E
  8
0
 10
4.0372149999999989
 20
-3.8280329999999991
 30
0.0
 11
4.0372149999999989
 21
-3.671783
 31
0.0
  0
LINE
  5
75F
  8
0
 10
4.0372149999999989
 20
-3.671783
 30
0.0
 11
4.1231519999999993
 21
-3.671783
 31
0.0
  0
LINE
  5
760
  8
0
 10
4.1231519999999993
 20
-3.671783
 30
0.0
 11
4.1465899999999989
 21
-3.6952210000000001
 31
0.0
  0
LINE
  5
761
  8
0
 10
4.1465899999999989
 20
-3.6952210000000001
 30
0.0
 11
4.1465899999999989
 21
-3.7264710000000001
 31
0.0
  0
LINE
  5
762
  8
0
 10
4.1465899999999989
 20
-3.7264710000000001
 30
0.0
 11
4.1231519999999993
 21
-3.749908
 31
0.0
  0
LINE
  5
763
  8
0
 10
4.1231519999999993
 20
-3.749908
 30
0.0
 11
4.0372149999999989
 21
-3.749908
 31
0.0
  0
LINE
  5
764
  8
0
 10
4.0997149999999989
 20
-3.749908
 30
0.0
 11
4.1465899999999989
 21
-3.8280329999999991
 31
0.0
  0
LINE
  5
765
  8
0
 10
-3.670631999999999
 20
5.2024900000000001
 30
0.0
 11
-3.670631999999999
 21
5.3587400000000001
 31
0.0
  0
LINE
  5
766
  8
0
 10
-3.670631999999999
 20
5.3587400000000001
 30
0.0
 11
-3.5846949999999991
 21
5.3587400000000001
 31
0.0
  0
LINE
  5
767
  8
0
 10
-3.5846949999999991
 20
5.3587400000000001
 30
0.0
 11
-3.561256999999999
 21
5.3353029999999988
 31
0.0
  0
LINE
  5
768
  8
0
 10
-3.561256999999999
 20
5.3353029999999988
 30
0.0
 11
-3.561256999999999
 21
5.3040529999999988
 31
0.0
  0
LINE
  5
769
  8
0
 10
-3.561256999999999
 20
5.3040529999999988
 30
0.0
 11
-3.5846949999999991
 21
5.2806150000000001
 31
0.0
  0
LINE
  5
76A
  8
0
 10
-3.5846949999999991
 20
5.2806150000000001
 30
0.0
 11
-3.670631999999999
 21
5.2806150000000001
 31
0.0
  0
LINE
  5
76B
  8
0
 10
-3.405006999999999
 20
5.3587400000000001
 30
0.0
 11
-3.514381999999999
 21
5.3587400000000001
 31
0.0
  0
LINE
  5
76C
  8
0
 10
-3.514381999999999
 20
5.3587400000000001
 30
0.0
 11
-3.514381999999999
 21
5.2024900000000001
 31
0.0
  0
LINE
  5
76D
  8
0
 10
-3.514381999999999
 20
5.2024900000000001
 30
0.0
 11
-3.405006999999999
 21
5.2024900000000001
 31
0.0
  0
LINE
  5
76E
  8
0
 10
-3.514381999999999
 20
5.2806150000000001
 30
0.0
 11
-3.4440699999999991
 21
5.2806150000000001
 31
0.0
  0
LINE
  5
76F
  8
0
 10
-3.358131999999999
 20
5.2024900000000001
 30
0.0
 11
-3.358131999999999
 21
5.3587400000000001
 31
0.0
  0
LINE
  5
770
  8
0
 10
-3.358131999999999
 20
5.3587400000000001
 30
0.0
 11
-3.2721949999999991
 21
5.3587400000000001
 31
0.0
  0
LINE
  5
771
  8
0
 10
-3.2721949999999991
 20
5.3587400000000001
 30
0.0
 11
-3.248756999999999
 21
5.3353029999999988
 31
0.0
  0
LINE
  5
772
  8
0
 10
-3.248756999999999
 20
5.3353029999999988
 30
0.0
 11
-3.248756999999999
 21
5.3040529999999988
 31
0.0
  0
LINE
  5
773
  8
0
 10
-3.248756999999999
 20
5.3040529999999988
 30
0.0
 11
-3.2721949999999991
 21
5.2806150000000001
 31
0.0
  0
LINE
  5
774
  8
0
 10
-3.2721949999999991
 20
5.2806150000000001
 30
0.0
 11
-3.358131999999999
 21
5.2806150000000001
 31
0.0
  0
LINE
  5
775
  8
0
 10
-3.295631999999999
 20
5.2806150000000001
 30
0.0
 11
-3.248756999999999
 21
5.2024900000000001
 31
0.0
  0
LINE
  5
776
  8
0
 10
-3.201881999999999
 20
5.2024900000000001
 30
0.0
 11
-3.201881999999999
 21
5.3587400000000001
 31
0.0
  0
LINE
  5
777
  8
0
 10
-3.201881999999999
 20
5.3587400000000001
 30
0.0
 11
-3.092506999999999
 21
5.3587400000000001
 31
0.0
  0
LINE
  5
778
  8
0
 10
-3.201881999999999
 20
5.2806150000000001
 30
0.0
 11
-3.1471949999999991
 21
5.2806150000000001
 31
0.0
  0
LINE
  5
779
  8
0
 10
-2.936256999999999
 20
5.3587400000000001
 30
0.0
 11
-3.045631999999999
 21
5.3587400000000001
 31
0.0
  0
LINE
  5
77A
  8
0
 10
-3.045631999999999
 20
5.3587400000000001
 30
0.0
 11
-3.045631999999999
 21
5.2024900000000001
 31
0.0
  0
LINE
  5
77B
  8
0
 10
-3.045631999999999
 20
5.2024900000000001
 30
0.0
 11
-2.936256999999999
 21
5.2024900000000001
 31
0.0
  0
LINE
  5
77C
  8
0
 10
-3.045631999999999
 20
5.2806150000000001
 30
0.0
 11
-2.9753199999999991
 21
5.2806150000000001
 31
0.0
  0
LINE
  5
77D
  8
0
 10
-2.780006999999999
 20
5.3353029999999988
 30
0.0
 11
-2.8034449999999991
 21
5.3587400000000001
 31
0.0
  0
LINE
  5
77E
  8
0
 10
-2.8034449999999991
 20
5.3587400000000001
 30
0.0
 11
-2.8659449999999991
 21
5.3587400000000001
 31
0.0
  0
LINE
  5
77F
  8
0
 10
-2.8659449999999991
 20
5.3587400000000001
 30
0.0
 11
-2.889381999999999
 21
5.3353029999999988
 31
0.0
  0
LINE
  5
780
  8
0
 10
-2.889381999999999
 20
5.3353029999999988
 30
0.0
 11
-2.889381999999999
 21
5.2259279999999988
 31
0.0
  0
LINE
  5
781
  8
0
 10
-2.889381999999999
 20
5.2259279999999988
 30
0.0
 11
-2.8659449999999991
 21
5.2024900000000001
 31
0.0
  0
LINE
  5
782
  8
0
 10
-2.8659449999999991
 20
5.2024900000000001
 30
0.0
 11
-2.8034449999999991
 21
5.2024900000000001
 31
0.0
  0
LINE
  5
783
  8
0
 10
-2.8034449999999991
 20
5.2024900000000001
 30
0.0
 11
-2.780006999999999
 21
5.2259279999999988
 31
0.0
  0
LINE
  5
784
  8
0
 10
-2.6784449999999991
 20
5.2024900000000001
 30
0.0
 11
-2.6784449999999991
 21
5.3587400000000001
 31
0.0
  0
LINE
  5
785
  8
0
 10
-2.733131999999999
 20
5.3587400000000001
 30
0.0
 11
-2.623756999999999
 21
5.3587400000000001
 31
0.0
  0
LINE
  5
786
  8
0
 10
-2.311256999999999
 20
5.3353029999999988
 30
0.0
 11
-2.3346949999999991
 21
5.3587400000000001
 31
0.0
  0
LINE
  5
787
  8
0
 10
-2.3346949999999991
 20
5.3587400000000001
 30
0.0
 11
-2.3971949999999991
 21
5.3587400000000001
 31
0.0
  0
LINE
  5
788
  8
0
 10
-2.3971949999999991
 20
5.3587400000000001
 30
0.0
 11
-2.420631999999999
 21
5.3353029999999988
 31
0.0
  0
LINE
  5
789
  8
0
 10
-2.420631999999999
 20
5.3353029999999988
 30
0.0
 11
-2.420631999999999
 21
5.2259279999999988
 31
0.0
  0
LINE
  5
78A
  8
0
 10
-2.420631999999999
 20
5.2259279999999988
 30
0.0
 11
-2.3971949999999991
 21
5.2024900000000001
 31
0.0
  0
LINE
  5
78B
  8
0
 10
-2.3971949999999991
 20
5.2024900000000001
 30
0.0
 11
-2.3346949999999991
 21
5.2024900000000001
 31
0.0
  0
LINE
  5
78C
  8
0
 10
-2.3346949999999991
 20
5.2024900000000001
 30
0.0
 11
-2.311256999999999
 21
5.2259279999999988
 31
0.0
  0
LINE
  5
78D
  8
0
 10
-2.264381999999999
 20
5.3587400000000001
 30
0.0
 11
-2.264381999999999
 21
5.2259279999999988
 31
0.0
  0
LINE
  5
78E
  8
0
 10
-2.264381999999999
 20
5.2259279999999988
 30
0.0
 11
-2.2409449999999991
 21
5.2024900000000001
 31
0.0
  0
LINE
  5
78F
  8
0
 10
-2.2409449999999991
 20
5.2024900000000001
 30
0.0
 11
-2.1784449999999991
 21
5.2024900000000001
 31
0.0
  0
LINE
  5
790
  8
0
 10
-2.1784449999999991
 20
5.2024900000000001
 30
0.0
 11
-2.155006999999999
 21
5.2259279999999988
 31
0.0
  0
LINE
  5
791
  8
0
 10
-2.155006999999999
 20
5.2259279999999988
 30
0.0
 11
-2.155006999999999
 21
5.3587400000000001
 31
0.0
  0
LINE
  5
792
  8
0
 10
-2.0534449999999991
 20
5.2024900000000001
 30
0.0
 11
-2.0534449999999991
 21
5.3587400000000001
 31
0.0
  0
LINE
  5
793
  8
0
 10
-2.108131999999999
 20
5.3587400000000001
 30
0.0
 11
-1.998756999999999
 21
5.3587400000000001
 31
0.0
  0
LINE
  5
794
  8
0
 10
-3.7951419999999989
 20
5.0774470000000003
 30
0.0
 11
-3.7951419999999989
 21
4.9211970000000003
 31
0.0
  0
LINE
  5
795
  8
0
 10
-3.9045169999999989
 20
4.9211970000000003
 30
0.0
 11
-3.9045169999999989
 21
5.0774470000000003
 31
0.0
  0
LINE
  5
796
  8
0
 10
-3.9045169999999989
 20
4.9993220000000003
 30
0.0
 11
-3.7951419999999989
 21
4.9993220000000003
 31
0.0
  0
LINE
  5
797
  8
0
 10
-3.7482669999999989
 20
4.9211970000000003
 30
0.0
 11
-3.7092049999999999
 21
5.0774470000000003
 31
0.0
  0
LINE
  5
798
  8
0
 10
-3.7092049999999999
 20
5.0774470000000003
 30
0.0
 11
-3.6779549999999999
 21
5.0774470000000003
 31
0.0
  0
LINE
  5
799
  8
0
 10
-3.6779549999999999
 20
5.0774470000000003
 30
0.0
 11
-3.6388919999999989
 21
4.9211970000000003
 31
0.0
  0
LINE
  5
79A
  8
0
 10
-3.730688999999999
 20
4.991509999999999
 30
0.0
 11
-3.6564699999999992
 21
4.991509999999999
 31
0.0
  0
LINE
  5
79B
  8
0
 10
-3.5920169999999989
 20
4.9211970000000003
 30
0.0
 11
-3.5920169999999989
 21
5.0774470000000003
 31
0.0
  0
LINE
  5
79C
  8
0
 10
-3.5920169999999989
 20
5.0774470000000003
 30
0.0
 11
-3.4826419999999989
 21
4.9211970000000003
 31
0.0
  0
LINE
  5
79D
  8
0
 10
-3.4826419999999989
 20
4.9211970000000003
 30
0.0
 11
-3.4826419999999989
 21
5.0774470000000003
 31
0.0
  0
LINE
  5
79E
  8
0
 10
-3.3263919999999989
 20
5.054009999999999
 30
0.0
 11
-3.3498299999999999
 21
5.0774470000000003
 31
0.0
  0
LINE
  5
79F
  8
0
 10
-3.3498299999999999
 20
5.0774470000000003
 30
0.0
 11
-3.4123299999999999
 21
5.0774470000000003
 31
0.0
  0
LINE
  5
7A0
  8
0
 10
-3.4123299999999999
 20
5.0774470000000003
 30
0.0
 11
-3.4357669999999989
 21
5.054009999999999
 31
0.0
  0
LINE
  5
7A1
  8
0
 10
-3.4357669999999989
 20
5.054009999999999
 30
0.0
 11
-3.4357669999999989
 21
4.944634999999999
 31
0.0
  0
LINE
  5
7A2
  8
0
 10
-3.4357669999999989
 20
4.944634999999999
 30
0.0
 11
-3.4123299999999999
 21
4.9211970000000003
 31
0.0
  0
LINE
  5
7A3
  8
0
 10
-3.4123299999999999
 20
4.9211970000000003
 30
0.0
 11
-3.3498299999999999
 21
4.9211970000000003
 31
0.0
  0
LINE
  5
7A4
  8
0
 10
-3.3498299999999999
 20
4.9211970000000003
 30
0.0
 11
-3.3263919999999989
 21
4.944634999999999
 31
0.0
  0
LINE
  5
7A5
  8
0
 10
-3.3263919999999989
 20
4.944634999999999
 30
0.0
 11
-3.3263919999999989
 21
4.991509999999999
 31
0.0
  0
LINE
  5
7A6
  8
0
 10
-3.3263919999999989
 20
4.991509999999999
 30
0.0
 11
-3.3576419999999989
 21
4.991509999999999
 31
0.0
  0
LINE
  5
7A7
  8
0
 10
-3.1701419999999989
 20
5.0774470000000003
 30
0.0
 11
-3.2795169999999989
 21
5.0774470000000003
 31
0.0
  0
LINE
  5
7A8
  8
0
 10
-3.2795169999999989
 20
5.0774470000000003
 30
0.0
 11
-3.2795169999999989
 21
4.9211970000000003
 31
0.0
  0
LINE
  5
7A9
  8
0
 10
-3.2795169999999989
 20
4.9211970000000003
 30
0.0
 11
-3.1701419999999989
 21
4.9211970000000003
 31
0.0
  0
LINE
  5
7AA
  8
0
 10
-3.2795169999999989
 20
4.9993220000000003
 30
0.0
 11
-3.209204999999999
 21
4.9993220000000003
 31
0.0
  0
LINE
  5
7AB
  8
0
 10
-3.1232669999999989
 20
4.9211970000000003
 30
0.0
 11
-3.1232669999999989
 21
5.0774470000000003
 31
0.0
  0
LINE
  5
7AC
  8
0
 10
-3.1232669999999989
 20
5.0774470000000003
 30
0.0
 11
-3.037329999999999
 21
5.0774470000000003
 31
0.0
  0
LINE
  5
7AD
  8
0
 10
-3.037329999999999
 20
5.0774470000000003
 30
0.0
 11
-3.0138919999999989
 21
5.054009999999999
 31
0.0
  0
LINE
  5
7AE
  8
0
 10
-3.0138919999999989
 20
5.054009999999999
 30
0.0
 11
-3.0138919999999989
 21
5.022759999999999
 31
0.0
  0
LINE
  5
7AF
  8
0
 10
-3.0138919999999989
 20
5.022759999999999
 30
0.0
 11
-3.037329999999999
 21
4.9993220000000003
 31
0.0
  0
LINE
  5
7B0
  8
0
 10
-3.037329999999999
 20
4.9993220000000003
 30
0.0
 11
-3.1232669999999989
 21
4.9993220000000003
 31
0.0
  0
LINE
  5
7B1
  8
0
 10
-3.0607669999999989
 20
4.9993220000000003
 30
0.0
 11
-3.0138919999999989
 21
4.9211970000000003
 31
0.0
  0
LINE
  5
7B2
  8
0
 10
-2.8107669999999989
 20
4.9211970000000003
 30
0.0
 11
-2.8107669999999989
 21
5.0774470000000003
 31
0.0
  0
LINE
  5
7B3
  8
0
 10
-2.8107669999999989
 20
5.0774470000000003
 30
0.0
 11
-2.724829999999999
 21
5.0774470000000003
 31
0.0
  0
LINE
  5
7B4
  8
0
 10
-2.724829999999999
 20
5.0774470000000003
 30
0.0
 11
-2.7013919999999989
 21
5.054009999999999
 31
0.0
  0
LINE
  5
7B5
  8
0
 10
-2.7013919999999989
 20
5.054009999999999
 30
0.0
 11
-2.7013919999999989
 21
5.022759999999999
 31
0.0
  0
LINE
  5
7B6
  8
0
 10
-2.7013919999999989
 20
5.022759999999999
 30
0.0
 11
-2.724829999999999
 21
4.9993220000000003
 31
0.0
  0
LINE
  5
7B7
  8
0
 10
-2.724829999999999
 20
4.9993220000000003
 30
0.0
 11
-2.8107669999999989
 21
4.9993220000000003
 31
0.0
  0
LINE
  5
7B8
  8
0
 10
-2.6545169999999989
 20
5.0774470000000003
 30
0.0
 11
-2.6545169999999989
 21
4.944634999999999
 31
0.0
  0
LINE
  5
7B9
  8
0
 10
-2.6545169999999989
 20
4.944634999999999
 30
0.0
 11
-2.631079999999999
 21
4.9211970000000003
 31
0.0
  0
LINE
  5
7BA
  8
0
 10
-2.631079999999999
 20
4.9211970000000003
 30
0.0
 11
-2.568579999999999
 21
4.9211970000000003
 31
0.0
  0
LINE
  5
7BB
  8
0
 10
-2.568579999999999
 20
4.9211970000000003
 30
0.0
 11
-2.5451419999999989
 21
4.944634999999999
 31
0.0
  0
LINE
  5
7BC
  8
0
 10
-2.5451419999999989
 20
4.944634999999999
 30
0.0
 11
-2.5451419999999989
 21
5.0774470000000003
 31
0.0
  0
LINE
  5
7BD
  8
0
 10
-2.4982669999999989
 20
4.9211970000000003
 30
0.0
 11
-2.4982669999999989
 21
5.0774470000000003
 31
0.0
  0
LINE
  5
7BE
  8
0
 10
-2.4982669999999989
 20
5.0774470000000003
 30
0.0
 11
-2.3888919999999989
 21
4.9211970000000003
 31
0.0
  0
LINE
  5
7BF
  8
0
 10
-2.3888919999999989
 20
4.9211970000000003
 30
0.0
 11
-2.3888919999999989
 21
5.0774470000000003
 31
0.0
  0
LINE
  5
7C0
  8
0
 10
-2.2326419999999989
 20
5.054009999999999
 30
0.0
 11
-2.256079999999999
 21
5.0774470000000003
 31
0.0
  0
LINE
  5
7C1
  8
0
 10
-2.256079999999999
 20
5.0774470000000003
 30
0.0
 11
-2.318579999999999
 21
5.0774470000000003
 31
0.0
  0
LINE
  5
7C2
  8
0
 10
-2.318579999999999
 20
5.0774470000000003
 30
0.0
 11
-2.3420169999999989
 21
5.054009999999999
 31
0.0
  0
LINE
  5
7C3
  8
0
 10
-2.3420169999999989
 20
5.054009999999999
 30
0.0
 11
-2.3420169999999989
 21
4.944634999999999
 31
0.0
  0
LINE
  5
7C4
  8
0
 10
-2.3420169999999989
 20
4.944634999999999
 30
0.0
 11
-2.318579999999999
 21
4.9211970000000003
 31
0.0
  0
LINE
  5
7C5
  8
0
 10
-2.318579999999999
 20
4.9211970000000003
 30
0.0
 11
-2.256079999999999
 21
4.9211970000000003
 31
0.0
  0
LINE
  5
7C6
  8
0
 10
-2.256079999999999
 20
4.9211970000000003
 30
0.0
 11
-2.2326419999999989
 21
4.944634999999999
 31
0.0
  0
LINE
  5
7C7
  8
0
 10
-2.0763919999999989
 20
5.0774470000000003
 30
0.0
 11
-2.0763919999999989
 21
4.9211970000000003
 31
0.0
  0
LINE
  5
7C8
  8
0
 10
-2.1857669999999989
 20
4.9211970000000003
 30
0.0
 11
-2.1857669999999989
 21
5.0774470000000003
 31
0.0
  0
LINE
  5
7C9
  8
0
 10
-2.1857669999999989
 20
4.9993220000000003
 30
0.0
 11
-2.0763919999999989
 21
4.9993220000000003
 31
0.0
  0
LINE
  5
7CA
  8
0
 10
-1.9201419999999989
 20
5.0774470000000003
 30
0.0
 11
-2.0295169999999989
 21
5.0774470000000003
 31
0.0
  0
LINE
  5
7CB
  8
0
 10
-2.0295169999999989
 20
5.0774470000000003
 30
0.0
 11
-2.0295169999999989
 21
4.9211970000000003
 31
0.0
  0
LINE
  5
7CC
  8
0
 10
-2.0295169999999989
 20
4.9211970000000003
 30
0.0
 11
-1.9201419999999989
 21
4.9211970000000003
 31
0.0
  0
LINE
  5
7CD
  8
0
 10
-2.0295169999999989
 20
4.9993220000000003
 30
0.0
 11
-1.959204999999999
 21
4.9993220000000003
 31
0.0
  0
LINE
  5
7CE
  8
0
 10
-1.7638919999999989
 20
5.054009999999999
 30
0.0
 11
-1.787329999999999
 21
5.0774470000000003
 31
0.0
  0
LINE
  5
7CF
  8
0
 10
-1.787329999999999
 20
5.0774470000000003
 30
0.0
 11
-1.849829999999999
 21
5.0774470000000003
 31
0.0
  0
LINE
  5
7D0
  8
0
 10
-1.849829999999999
 20
5.0774470000000003
 30
0.0
 11
-1.8732669999999989
 21
5.054009999999999
 31
0.0
  0
LINE
  5
7D1
  8
0
 10
-1.8732669999999989
 20
5.054009999999999
 30
0.0
 11
-1.8732669999999989
 21
5.022759999999999
 31
0.0
  0
LINE
  5
7D2
  8
0
 10
-1.8732669999999989
 20
5.022759999999999
 30
0.0
 11
-1.849829999999999
 21
4.9993220000000003
 31
0.0
  0
LINE
  5
7D3
  8
0
 10
-1.849829999999999
 20
4.9993220000000003
 30
0.0
 11
-1.787329999999999
 21
4.9993220000000003
 31
0.0
  0
LINE
  5
7D4
  8
0
 10
-1.787329999999999
 20
4.9993220000000003
 30
0.0
 11
-1.7638919999999989
 21
4.975884999999999
 31
0.0
  0
LINE
  5
7D5
  8
0
 10
-1.7638919999999989
 20
4.975884999999999
 30
0.0
 11
-1.7638919999999989
 21
4.944634999999999
 31
0.0
  0
LINE
  5
7D6
  8
0
 10
-1.7638919999999989
 20
4.944634999999999
 30
0.0
 11
-1.787329999999999
 21
4.9211970000000003
 31
0.0
  0
LINE
  5
7D7
  8
0
 10
-1.787329999999999
 20
4.9211970000000003
 30
0.0
 11
-1.849829999999999
 21
4.9211970000000003
 31
0.0
  0
LINE
  5
7D8
  8
0
 10
-1.849829999999999
 20
4.9211970000000003
 30
0.0
 11
-1.8732669999999989
 21
4.944634999999999
 31
0.0
  0
LINE
  5
7D9
  8
0
 10
1.6247889999999989
 20
5.3354359999999987
 30
0.0
 11
1.6013520000000001
 21
5.3588729999999991
 31
0.0
  0
LINE
  5
7DA
  8
0
 10
1.6013520000000001
 20
5.3588729999999991
 30
0.0
 11
1.5388520000000001
 21
5.3588729999999991
 31
0.0
  0
LINE
  5
7DB
  8
0
 10
1.5388520000000001
 20
5.3588729999999991
 30
0.0
 11
1.5154139999999989
 21
5.3354359999999987
 31
0.0
  0
LINE
  5
7DC
  8
0
 10
1.5154139999999989
 20
5.3354359999999987
 30
0.0
 11
1.5154139999999989
 21
5.3041859999999987
 31
0.0
  0
LINE
  5
7DD
  8
0
 10
1.5154139999999989
 20
5.3041859999999987
 30
0.0
 11
1.5388520000000001
 21
5.2807479999999991
 31
0.0
  0
LINE
  5
7DE
  8
0
 10
1.5388520000000001
 20
5.2807479999999991
 30
0.0
 11
1.6013520000000001
 21
5.2807479999999991
 31
0.0
  0
LINE
  5
7DF
  8
0
 10
1.6013520000000001
 20
5.2807479999999991
 30
0.0
 11
1.6247889999999989
 21
5.2573109999999987
 31
0.0
  0
LINE
  5
7E0
  8
0
 10
1.6247889999999989
 20
5.2573109999999987
 30
0.0
 11
1.6247889999999989
 21
5.2260609999999987
 31
0.0
  0
LINE
  5
7E1
  8
0
 10
1.6247889999999989
 20
5.2260609999999987
 30
0.0
 11
1.6013520000000001
 21
5.2026229999999991
 31
0.0
  0
LINE
  5
7E2
  8
0
 10
1.6013520000000001
 20
5.2026229999999991
 30
0.0
 11
1.5388520000000001
 21
5.2026229999999991
 31
0.0
  0
LINE
  5
7E3
  8
0
 10
1.5388520000000001
 20
5.2026229999999991
 30
0.0
 11
1.5154139999999989
 21
5.2260609999999987
 31
0.0
  0
LINE
  5
7E4
  8
0
 10
1.7263520000000001
 20
5.2026229999999991
 30
0.0
 11
1.7263520000000001
 21
5.3588729999999991
 31
0.0
  0
LINE
  5
7E5
  8
0
 10
1.6716639999999989
 20
5.3588729999999991
 30
0.0
 11
1.7810389999999989
 21
5.3588729999999991
 31
0.0
  0
LINE
  5
7E6
  8
0
 10
1.8279139999999989
 20
5.2026229999999991
 30
0.0
 11
1.8669770000000001
 21
5.3588729999999991
 31
0.0
  0
LINE
  5
7E7
  8
0
 10
1.8669770000000001
 20
5.3588729999999991
 30
0.0
 11
1.8982270000000001
 21
5.3588729999999991
 31
0.0
  0
LINE
  5
7E8
  8
0
 10
1.8982270000000001
 20
5.3588729999999991
 30
0.0
 11
1.9372889999999989
 21
5.2026229999999991
 31
0.0
  0
LINE
  5
7E9
  8
0
 10
1.8454930000000001
 20
5.2729359999999987
 30
0.0
 11
1.9197109999999999
 21
5.2729359999999987
 31
0.0
  0
LINE
  5
7EA
  8
0
 10
1.9841639999999989
 20
5.2026229999999991
 30
0.0
 11
1.9841639999999989
 21
5.3588729999999991
 31
0.0
  0
LINE
  5
7EB
  8
0
 10
1.9841639999999989
 20
5.3588729999999991
 30
0.0
 11
2.0935389999999989
 21
5.2026229999999991
 31
0.0
  0
LINE
  5
7EC
  8
0
 10
2.0935389999999989
 20
5.2026229999999991
 30
0.0
 11
2.0935389999999989
 21
5.3588729999999991
 31
0.0
  0
LINE
  5
7ED
  8
0
 10
2.1404139999999989
 20
5.2026229999999991
 30
0.0
 11
2.1404139999999989
 21
5.3588729999999991
 31
0.0
  0
LINE
  5
7EE
  8
0
 10
2.1404139999999989
 20
5.3588729999999991
 30
0.0
 11
2.226351999999999
 21
5.3588729999999991
 31
0.0
  0
LINE
  5
7EF
  8
0
 10
2.226351999999999
 20
5.3588729999999991
 30
0.0
 11
2.2497889999999989
 21
5.3354359999999987
 31
0.0
  0
LINE
  5
7F0
  8
0
 10
2.2497889999999989
 20
5.3354359999999987
 30
0.0
 11
2.2497889999999989
 21
5.2260609999999987
 31
0.0
  0
LINE
  5
7F1
  8
0
 10
2.2497889999999989
 20
5.2260609999999987
 30
0.0
 11
2.226351999999999
 21
5.2026229999999991
 31
0.0
  0
LINE
  5
7F2
  8
0
 10
2.226351999999999
 20
5.2026229999999991
 30
0.0
 11
2.1404139999999989
 21
5.2026229999999991
 31
0.0
  0
LINE
  5
7F3
  8
0
 10
2.2966639999999989
 20
5.2026229999999991
 30
0.0
 11
2.335726999999999
 21
5.3588729999999991
 31
0.0
  0
LINE
  5
7F4
  8
0
 10
2.335726999999999
 20
5.3588729999999991
 30
0.0
 11
2.366976999999999
 21
5.3588729999999991
 31
0.0
  0
LINE
  5
7F5
  8
0
 10
2.366976999999999
 20
5.3588729999999991
 30
0.0
 11
2.4060389999999989
 21
5.2026229999999991
 31
0.0
  0
LINE
  5
7F6
  8
0
 10
2.3142429999999989
 20
5.2729359999999987
 30
0.0
 11
2.3884609999999991
 21
5.2729359999999987
 31
0.0
  0
LINE
  5
7F7
  8
0
 10
2.4529139999999989
 20
5.2026229999999991
 30
0.0
 11
2.4529139999999989
 21
5.3588729999999991
 31
0.0
  0
LINE
  5
7F8
  8
0
 10
2.4529139999999989
 20
5.3588729999999991
 30
0.0
 11
2.538851999999999
 21
5.3588729999999991
 31
0.0
  0
LINE
  5
7F9
  8
0
 10
2.538851999999999
 20
5.3588729999999991
 30
0.0
 11
2.5622889999999989
 21
5.3354359999999987
 31
0.0
  0
LINE
  5
7FA
  8
0
 10
2.5622889999999989
 20
5.3354359999999987
 30
0.0
 11
2.5622889999999989
 21
5.3041859999999987
 31
0.0
  0
LINE
  5
7FB
  8
0
 10
2.5622889999999989
 20
5.3041859999999987
 30
0.0
 11
2.538851999999999
 21
5.2807479999999991
 31
0.0
  0
LINE
  5
7FC
  8
0
 10
2.538851999999999
 20
5.2807479999999991
 30
0.0
 11
2.4529139999999989
 21
5.2807479999999991
 31
0.0
  0
LINE
  5
7FD
  8
0
 10
2.5154139999999989
 20
5.2807479999999991
 30
0.0
 11
2.5622889999999989
 21
5.2026229999999991
 31
0.0
  0
LINE
  5
7FE
  8
0
 10
2.6091639999999989
 20
5.2026229999999991
 30
0.0
 11
2.6091639999999989
 21
5.3588729999999991
 31
0.0
  0
LINE
  5
7FF
  8
0
 10
2.6091639999999989
 20
5.3588729999999991
 30
0.0
 11
2.695101999999999
 21
5.3588729999999991
 31
0.0
  0
LINE
  5
800
  8
0
 10
2.695101999999999
 20
5.3588729999999991
 30
0.0
 11
2.7185389999999989
 21
5.3354359999999987
 31
0.0
  0
LINE
  5
801
  8
0
 10
2.7185389999999989
 20
5.3354359999999987
 30
0.0
 11
2.7185389999999989
 21
5.2260609999999987
 31
0.0
  0
LINE
  5
802
  8
0
 10
2.7185389999999989
 20
5.2260609999999987
 30
0.0
 11
2.695101999999999
 21
5.2026229999999991
 31
0.0
  0
LINE
  5
803
  8
0
 10
2.695101999999999
 20
5.2026229999999991
 30
0.0
 11
2.6091639999999989
 21
5.2026229999999991
 31
0.0
  0
LINE
  5
804
  8
0
 10
3.0310389999999989
 20
5.3588729999999991
 30
0.0
 11
3.0310389999999989
 21
5.2026229999999991
 31
0.0
  0
LINE
  5
805
  8
0
 10
2.9216639999999989
 20
5.2026229999999991
 30
0.0
 11
2.9216639999999989
 21
5.3588729999999991
 31
0.0
  0
LINE
  5
806
  8
0
 10
2.9216639999999989
 20
5.2807479999999991
 30
0.0
 11
3.0310389999999989
 21
5.2807479999999991
 31
0.0
  0
LINE
  5
807
  8
0
 10
3.1872889999999989
 20
5.3588729999999991
 30
0.0
 11
3.0779139999999989
 21
5.3588729999999991
 31
0.0
  0
LINE
  5
808
  8
0
 10
3.0779139999999989
 20
5.3588729999999991
 30
0.0
 11
3.0779139999999989
 21
5.2026229999999991
 31
0.0
  0
LINE
  5
809
  8
0
 10
3.0779139999999989
 20
5.2026229999999991
 30
0.0
 11
3.1872889999999989
 21
5.2026229999999991
 31
0.0
  0
LINE
  5
80A
  8
0
 10
3.0779139999999989
 20
5.2807479999999991
 30
0.0
 11
3.148226999999999
 21
5.2807479999999991
 31
0.0
  0
LINE
  5
80B
  8
0
 10
3.273226999999999
 20
5.2026229999999991
 30
0.0
 11
3.241976999999999
 21
5.2026229999999991
 31
0.0
  0
LINE
  5
80C
  8
0
 10
3.257601999999999
 20
5.2026229999999991
 30
0.0
 11
3.257601999999999
 21
5.3588729999999991
 31
0.0
  0
LINE
  5
80D
  8
0
 10
3.273226999999999
 20
5.3588729999999991
 30
0.0
 11
3.241976999999999
 21
5.3588729999999991
 31
0.0
  0
LINE
  5
80E
  8
0
 10
3.4372889999999989
 20
5.3354359999999987
 30
0.0
 11
3.413851999999999
 21
5.3588729999999991
 31
0.0
  0
LINE
  5
80F
  8
0
 10
3.413851999999999
 20
5.3588729999999991
 30
0.0
 11
3.351351999999999
 21
5.3588729999999991
 31
0.0
  0
LINE
  5
810
  8
0
 10
3.351351999999999
 20
5.3588729999999991
 30
0.0
 11
3.3279139999999989
 21
5.3354359999999987
 31
0.0
  0
LINE
  5
811
  8
0
 10
3.3279139999999989
 20
5.3354359999999987
 30
0.0
 11
3.3279139999999989
 21
5.2260609999999987
 31
0.0
  0
LINE
  5
812
  8
0
 10
3.3279139999999989
 20
5.2260609999999987
 30
0.0
 11
3.351351999999999
 21
5.2026229999999991
 31
0.0
  0
LINE
  5
813
  8
0
 10
3.351351999999999
 20
5.2026229999999991
 30
0.0
 11
3.413851999999999
 21
5.2026229999999991
 31
0.0
  0
LINE
  5
814
  8
0
 10
3.413851999999999
 20
5.2026229999999991
 30
0.0
 11
3.4372889999999989
 21
5.2260609999999987
 31
0.0
  0
LINE
  5
815
  8
0
 10
3.4372889999999989
 20
5.2260609999999987
 30
0.0
 11
3.4372889999999989
 21
5.2729359999999987
 31
0.0
  0
LINE
  5
816
  8
0
 10
3.4372889999999989
 20
5.2729359999999987
 30
0.0
 11
3.4060389999999989
 21
5.2729359999999987
 31
0.0
  0
LINE
  5
817
  8
0
 10
3.5935389999999989
 20
5.3588729999999991
 30
0.0
 11
3.5935389999999989
 21
5.2026229999999991
 31
0.0
  0
LINE
  5
818
  8
0
 10
3.4841639999999989
 20
5.2026229999999991
 30
0.0
 11
3.4841639999999989
 21
5.3588729999999991
 31
0.0
  0
LINE
  5
819
  8
0
 10
3.4841639999999989
 20
5.2807479999999991
 30
0.0
 11
3.5935389999999989
 21
5.2807479999999991
 31
0.0
  0
LINE
  5
81A
  8
0
 10
3.695101999999999
 20
5.2026229999999991
 30
0.0
 11
3.695101999999999
 21
5.3588729999999991
 31
0.0
  0
LINE
  5
81B
  8
0
 10
3.6404139999999989
 20
5.3588729999999991
 30
0.0
 11
3.7497889999999989
 21
5.3588729999999991
 31
0.0
  0
LINE
  5
81C
  8
0
 10
3.9060389999999989
 20
5.3354359999999987
 30
0.0
 11
3.882601999999999
 21
5.3588729999999991
 31
0.0
  0
LINE
  5
81D
  8
0
 10
3.882601999999999
 20
5.3588729999999991
 30
0.0
 11
3.820101999999999
 21
5.3588729999999991
 31
0.0
  0
LINE
  5
81E
  8
0
 10
3.820101999999999
 20
5.3588729999999991
 30
0.0
 11
3.7966639999999989
 21
5.3354359999999987
 31
0.0
  0
LINE
  5
81F
  8
0
 10
3.7966639999999989
 20
5.3354359999999987
 30
0.0
 11
3.7966639999999989
 21
5.3041859999999987
 31
0.0
  0
LINE
  5
820
  8
0
 10
3.7966639999999989
 20
5.3041859999999987
 30
0.0
 11
3.820101999999999
 21
5.2807479999999991
 31
0.0
  0
LINE
  5
821
  8
0
 10
3.820101999999999
 20
5.2807479999999991
 30
0.0
 11
3.882601999999999
 21
5.2807479999999991
 31
0.0
  0
LINE
  5
822
  8
0
 10
3.882601999999999
 20
5.2807479999999991
 30
0.0
 11
3.9060389999999989
 21
5.2573109999999987
 31
0.0
  0
LINE
  5
823
  8
0
 10
3.9060389999999989
 20
5.2573109999999987
 30
0.0
 11
3.9060389999999989
 21
5.2260609999999987
 31
0.0
  0
LINE
  5
824
  8
0
 10
3.9060389999999989
 20
5.2260609999999987
 30
0.0
 11
3.882601999999999
 21
5.2026229999999991
 31
0.0
  0
LINE
  5
825
  8
0
 10
3.882601999999999
 20
5.2026229999999991
 30
0.0
 11
3.820101999999999
 21
5.2026229999999991
 31
0.0
  0
LINE
  5
826
  8
0
 10
3.820101999999999
 20
5.2026229999999991
 30
0.0
 11
3.7966639999999989
 21
5.2260609999999987
 31
0.0
  0
LINE
  5
827
  8
0
 10
1.586735
 20
4.9199140000000003
 30
0.0
 11
1.586735
 21
4.9277269999999991
 31
0.0
  0
LINE
  5
828
  8
0
 10
1.719547999999999
 20
4.9199140000000003
 30
0.0
 11
1.7429849999999989
 21
5.0214769999999991
 31
0.0
  0
LINE
  5
829
  8
0
 10
1.7429849999999989
 20
5.0214769999999991
 30
0.0
 11
1.7429849999999989
 21
5.0527269999999991
 31
0.0
  0
LINE
  5
82A
  8
0
 10
1.7429849999999989
 20
5.0527269999999991
 30
0.0
 11
1.719547999999999
 21
5.0761640000000003
 31
0.0
  0
LINE
  5
82B
  8
0
 10
1.719547999999999
 20
5.0761640000000003
 30
0.0
 11
1.657047999999999
 21
5.0761640000000003
 31
0.0
  0
LINE
  5
82C
  8
0
 10
1.657047999999999
 20
5.0761640000000003
 30
0.0
 11
1.63361
 21
5.0527269999999991
 31
0.0
  0
LINE
  5
82D
  8
0
 10
1.63361
 20
5.0527269999999991
 30
0.0
 11
1.63361
 21
5.0214769999999991
 31
0.0
  0
LINE
  5
82E
  8
0
 10
1.63361
 20
5.0214769999999991
 30
0.0
 11
1.657047999999999
 21
4.9980390000000003
 31
0.0
  0
LINE
  5
82F
  8
0
 10
1.657047999999999
 20
4.9980390000000003
 30
0.0
 11
1.7375769999999999
 21
4.9980390000000003
 31
0.0
  0
LINE
  5
830
  8
0
 10
1.782047999999999
 20
5.0605390000000003
 30
0.0
 11
1.797672999999999
 21
5.0761640000000003
 31
0.0
  0
LINE
  5
831
  8
0
 10
1.797672999999999
 20
5.0761640000000003
 30
0.0
 11
1.797672999999999
 21
4.9199140000000003
 31
0.0
  0
LINE
  5
832
  8
0
 10
1.782047999999999
 20
4.9199140000000003
 30
0.0
 11
1.813297999999999
 21
4.9199140000000003
 31
0.0
  0
LINE
  5
833
  8
0
 10
1.8523599999999989
 20
4.9355390000000003
 30
0.0
 11
1.8679849999999989
 21
4.9199140000000003
 31
0.0
  0
LINE
  5
834
  8
0
 10
1.8679849999999989
 20
4.9199140000000003
 30
0.0
 11
1.9461099999999989
 21
4.9199140000000003
 31
0.0
  0
LINE
  5
835
  8
0
 10
1.9461099999999989
 20
4.9199140000000003
 30
0.0
 11
1.9617349999999989
 21
4.9355390000000003
 31
0.0
  0
LINE
  5
836
  8
0
 10
1.9617349999999989
 20
4.9355390000000003
 30
0.0
 11
1.9617349999999989
 21
4.9824140000000003
 31
0.0
  0
LINE
  5
837
  8
0
 10
1.9617349999999989
 20
4.9824140000000003
 30
0.0
 11
1.9461099999999989
 21
4.9980390000000003
 31
0.0
  0
LINE
  5
838
  8
0
 10
1.9461099999999989
 20
4.9980390000000003
 30
0.0
 11
1.8679849999999989
 21
4.9980390000000003
 31
0.0
  0
LINE
  5
839
  8
0
 10
1.8679849999999989
 20
4.9980390000000003
 30
0.0
 11
1.8523599999999989
 21
5.0136640000000003
 31
0.0
  0
LINE
  5
83A
  8
0
 10
1.8523599999999989
 20
5.0136640000000003
 30
0.0
 11
1.8523599999999989
 21
5.0605390000000003
 31
0.0
  0
LINE
  5
83B
  8
0
 10
1.8523599999999989
 20
5.0605390000000003
 30
0.0
 11
1.8679849999999989
 21
5.0761640000000003
 31
0.0
  0
LINE
  5
83C
  8
0
 10
1.8679849999999989
 20
5.0761640000000003
 30
0.0
 11
1.9461099999999989
 21
5.0761640000000003
 31
0.0
  0
LINE
  5
83D
  8
0
 10
1.9461099999999989
 20
5.0761640000000003
 30
0.0
 11
1.9617349999999989
 21
5.0605390000000003
 31
0.0
  0
LINE
  5
83E
  8
0
 10
1.9617349999999989
 20
5.0605390000000003
 30
0.0
 11
1.9617349999999989
 21
5.0136640000000003
 31
0.0
  0
LINE
  5
83F
  8
0
 10
1.9617349999999989
 20
5.0136640000000003
 30
0.0
 11
1.9461099999999989
 21
4.9980390000000003
 31
0.0
  0
LINE
  5
840
  8
0
 10
1.8679849999999989
 20
4.9980390000000003
 30
0.0
 11
1.8523599999999989
 21
4.9824140000000003
 31
0.0
  0
LINE
  5
841
  8
0
 10
1.8523599999999989
 20
4.9824140000000003
 30
0.0
 11
1.8523599999999989
 21
4.9355390000000003
 31
0.0
  0
LINE
  5
842
  8
0
 10
2.4714130000000001
 20
4.9209309999999986
 30
0.0
 11
2.4714130000000001
 21
4.928742999999999
 31
0.0
  0
LINE
  5
843
  8
0
 10
2.6042259999999988
 20
4.9209309999999986
 30
0.0
 11
2.6276630000000001
 21
5.022492999999999
 31
0.0
  0
LINE
  5
844
  8
0
 10
2.6276630000000001
 20
5.022492999999999
 30
0.0
 11
2.6276630000000001
 21
5.053742999999999
 31
0.0
  0
LINE
  5
845
  8
0
 10
2.6276630000000001
 20
5.053742999999999
 30
0.0
 11
2.6042259999999988
 21
5.0771809999999986
 31
0.0
  0
LINE
  5
846
  8
0
 10
2.6042259999999988
 20
5.0771809999999986
 30
0.0
 11
2.5417259999999988
 21
5.0771809999999986
 31
0.0
  0
LINE
  5
847
  8
0
 10
2.5417259999999988
 20
5.0771809999999986
 30
0.0
 11
2.5182880000000001
 21
5.053742999999999
 31
0.0
  0
LINE
  5
848
  8
0
 10
2.5182880000000001
 20
5.053742999999999
 30
0.0
 11
2.5182880000000001
 21
5.022492999999999
 31
0.0
  0
LINE
  5
849
  8
0
 10
2.5182880000000001
 20
5.022492999999999
 30
0.0
 11
2.5417259999999988
 21
4.9990559999999986
 31
0.0
  0
LINE
  5
84A
  8
0
 10
2.5417259999999988
 20
4.9990559999999986
 30
0.0
 11
2.622255
 21
4.9990559999999986
 31
0.0
  0
LINE
  5
84B
  8
0
 10
2.6745380000000001
 20
5.053742999999999
 30
0.0
 11
2.6979759999999988
 21
5.0771809999999986
 31
0.0
  0
LINE
  5
84C
  8
0
 10
2.6979759999999988
 20
5.0771809999999986
 30
0.0
 11
2.7604759999999988
 21
5.0771809999999986
 31
0.0
  0
LINE
  5
84D
  8
0
 10
2.7604759999999988
 20
5.0771809999999986
 30
0.0
 11
2.7839130000000001
 21
5.053742999999999
 31
0.0
  0
LINE
  5
84E
  8
0
 10
2.7839130000000001
 20
5.053742999999999
 30
0.0
 11
2.7839130000000001
 21
5.022492999999999
 31
0.0
  0
LINE
  5
84F
  8
0
 10
2.7839130000000001
 20
5.022492999999999
 30
0.0
 11
2.7604759999999988
 21
4.9990559999999986
 31
0.0
  0
LINE
  5
850
  8
0
 10
2.7604759999999988
 20
4.9990559999999986
 30
0.0
 11
2.7136009999999988
 21
4.9990559999999986
 31
0.0
  0
LINE
  5
851
  8
0
 10
2.7604759999999988
 20
4.9990559999999986
 30
0.0
 11
2.7839130000000001
 21
4.975617999999999
 31
0.0
  0
LINE
  5
852
  8
0
 10
2.7839130000000001
 20
4.975617999999999
 30
0.0
 11
2.7839130000000001
 21
4.944367999999999
 31
0.0
  0
LINE
  5
853
  8
0
 10
2.7839130000000001
 20
4.944367999999999
 30
0.0
 11
2.7604759999999988
 21
4.9209309999999986
 31
0.0
  0
LINE
  5
854
  8
0
 10
2.7604759999999988
 20
4.9209309999999986
 30
0.0
 11
2.6979759999999988
 21
4.9209309999999986
 31
0.0
  0
LINE
  5
855
  8
0
 10
2.6979759999999988
 20
4.9209309999999986
 30
0.0
 11
2.6745380000000001
 21
4.944367999999999
 31
0.0
  0
LINE
  5
856
  8
0
 10
2.8307880000000001
 20
5.0615559999999986
 30
0.0
 11
2.8307880000000001
 21
5.0771809999999986
 31
0.0
  0
LINE
  5
857
  8
0
 10
2.8307880000000001
 20
5.0771809999999986
 30
0.0
 11
2.9401630000000001
 21
5.0771809999999986
 31
0.0
  0
LINE
  5
858
  8
0
 10
2.9401630000000001
 20
5.0771809999999986
 30
0.0
 11
2.9401630000000001
 21
5.0615559999999986
 31
0.0
  0
LINE
  5
859
  8
0
 10
2.9401630000000001
 20
5.0615559999999986
 30
0.0
 11
2.8854759999999988
 21
4.9209309999999986
 31
0.0
  0
LINE
  5
85A
  8
0
 10
3.3664459999999989
 20
5.0636960000000002
 30
0.0
 11
3.3820709999999989
 21
5.0793210000000002
 31
0.0
  0
LINE
  5
85B
  8
0
 10
3.3820709999999989
 20
5.0793210000000002
 30
0.0
 11
3.3820709999999989
 21
4.9230710000000002
 31
0.0
  0
LINE
  5
85C
  8
0
 10
3.3664459999999989
 20
4.9230710000000002
 30
0.0
 11
3.3976959999999989
 21
4.9230710000000002
 31
0.0
  0
LINE
  5
85D
  8
0
 10
3.436758999999999
 20
4.9230710000000002
 30
0.0
 11
3.436758999999999
 21
4.9308829999999997
 31
0.0
  0
LINE
  5
85E
  8
0
 10
3.4758209999999989
 20
5.0636960000000002
 30
0.0
 11
3.4914459999999989
 21
5.0793210000000002
 31
0.0
  0
LINE
  5
85F
  8
0
 10
3.4914459999999989
 20
5.0793210000000002
 30
0.0
 11
3.4914459999999989
 21
4.9230710000000002
 31
0.0
  0
LINE
  5
860
  8
0
 10
3.4758209999999989
 20
4.9230710000000002
 30
0.0
 11
3.5070709999999989
 21
4.9230710000000002
 31
0.0
  0
LINE
  5
861
  8
0
 10
3.546133999999999
 20
5.0558829999999997
 30
0.0
 11
3.5695709999999989
 21
5.0793210000000002
 31
0.0
  0
LINE
  5
862
  8
0
 10
3.5695709999999989
 20
5.0793210000000002
 30
0.0
 11
3.6320709999999989
 21
5.0793210000000002
 31
0.0
  0
LINE
  5
863
  8
0
 10
3.6320709999999989
 20
5.0793210000000002
 30
0.0
 11
3.655508999999999
 21
5.0558829999999997
 31
0.0
  0
LINE
  5
864
  8
0
 10
3.655508999999999
 20
5.0558829999999997
 30
0.0
 11
3.655508999999999
 21
5.0246329999999997
 31
0.0
  0
LINE
  5
865
  8
0
 10
3.655508999999999
 20
5.0246329999999997
 30
0.0
 11
3.546133999999999
 21
4.9777579999999997
 31
0.0
  0
LINE
  5
866
  8
0
 10
3.546133999999999
 20
4.9777579999999997
 30
0.0
 11
3.546133999999999
 21
4.9230710000000002
 31
0.0
  0
LINE
  5
867
  8
0
 10
3.546133999999999
 20
4.9230710000000002
 30
0.0
 11
3.655508999999999
 21
4.9230710000000002
 31
0.0
  0
LINE
  5
868
  8
0
 10
3.811758999999999
 20
5.0793210000000002
 30
0.0
 11
3.702383999999999
 21
5.0793210000000002
 31
0.0
  0
LINE
  5
869
  8
0
 10
3.702383999999999
 20
5.0793210000000002
 30
0.0
 11
3.702383999999999
 21
5.0168210000000002
 31
0.0
  0
LINE
  5
86A
  8
0
 10
3.702383999999999
 20
5.0168210000000002
 30
0.0
 11
3.7883209999999989
 21
5.0168210000000002
 31
0.0
  0
LINE
  5
86B
  8
0
 10
3.7883209999999989
 20
5.0168210000000002
 30
0.0
 11
3.811758999999999
 21
4.9933829999999997
 31
0.0
  0
LINE
  5
86C
  8
0
 10
3.811758999999999
 20
4.9933829999999997
 30
0.0
 11
3.811758999999999
 21
4.9465079999999997
 31
0.0
  0
LINE
  5
86D
  8
0
 10
3.811758999999999
 20
4.9465079999999997
 30
0.0
 11
3.7883209999999989
 21
4.9230710000000002
 31
0.0
  0
LINE
  5
86E
  8
0
 10
3.7883209999999989
 20
4.9230710000000002
 30
0.0
 11
3.7258209999999989
 21
4.9230710000000002
 31
0.0
  0
LINE
  5
86F
  8
0
 10
3.7258209999999989
 20
4.9230710000000002
 30
0.0
 11
3.702383999999999
 21
4.9465079999999997
 31
0.0
  0
LINE
  5
870
  8
0
 10
1.5142260000000001
 20
4.780308999999999
 30
0.0
 11
1.5298510000000001
 21
4.795933999999999
 31
0.0
  0
LINE
  5
871
  8
0
 10
1.5298510000000001
 20
4.795933999999999
 30
0.0
 11
1.5298510000000001
 21
4.639683999999999
 31
0.0
  0
LINE
  5
872
  8
0
 10
1.5142260000000001
 20
4.639683999999999
 30
0.0
 11
1.5454760000000001
 21
4.639683999999999
 31
0.0
  0
LINE
  5
873
  8
0
 10
1.584538999999999
 20
4.639683999999999
 30
0.0
 11
1.584538999999999
 21
4.6474970000000004
 31
0.0
  0
LINE
  5
874
  8
0
 10
1.631413999999999
 20
4.7724970000000004
 30
0.0
 11
1.654850999999999
 21
4.795933999999999
 31
0.0
  0
LINE
  5
875
  8
0
 10
1.654850999999999
 20
4.795933999999999
 30
0.0
 11
1.717350999999999
 21
4.795933999999999
 31
0.0
  0
LINE
  5
876
  8
0
 10
1.717350999999999
 20
4.795933999999999
 30
0.0
 11
1.740788999999999
 21
4.7724970000000004
 31
0.0
  0
LINE
  5
877
  8
0
 10
1.740788999999999
 20
4.7724970000000004
 30
0.0
 11
1.740788999999999
 21
4.7412470000000004
 31
0.0
  0
LINE
  5
878
  8
0
 10
1.740788999999999
 20
4.7412470000000004
 30
0.0
 11
1.631413999999999
 21
4.6943720000000004
 31
0.0
  0
LINE
  5
879
  8
0
 10
1.631413999999999
 20
4.6943720000000004
 30
0.0
 11
1.631413999999999
 21
4.639683999999999
 31
0.0
  0
LINE
  5
87A
  8
0
 10
1.631413999999999
 20
4.639683999999999
 30
0.0
 11
1.740788999999999
 21
4.639683999999999
 31
0.0
  0
LINE
  5
87B
  8
0
 10
1.897038999999999
 20
4.795933999999999
 30
0.0
 11
1.787663999999999
 21
4.795933999999999
 31
0.0
  0
LINE
  5
87C
  8
0
 10
1.787663999999999
 20
4.795933999999999
 30
0.0
 11
1.787663999999999
 21
4.733433999999999
 31
0.0
  0
LINE
  5
87D
  8
0
 10
1.787663999999999
 20
4.733433999999999
 30
0.0
 11
1.873600999999999
 21
4.733433999999999
 31
0.0
  0
LINE
  5
87E
  8
0
 10
1.873600999999999
 20
4.733433999999999
 30
0.0
 11
1.897038999999999
 21
4.7099970000000004
 31
0.0
  0
LINE
  5
87F
  8
0
 10
1.897038999999999
 20
4.7099970000000004
 30
0.0
 11
1.897038999999999
 21
4.6631220000000004
 31
0.0
  0
LINE
  5
880
  8
0
 10
1.897038999999999
 20
4.6631220000000004
 30
0.0
 11
1.873600999999999
 21
4.639683999999999
 31
0.0
  0
LINE
  5
881
  8
0
 10
1.873600999999999
 20
4.639683999999999
 30
0.0
 11
1.811100999999999
 21
4.639683999999999
 31
0.0
  0
LINE
  5
882
  8
0
 10
1.811100999999999
 20
4.639683999999999
 30
0.0
 11
1.787663999999999
 21
4.6631220000000004
 31
0.0
  0
LINE
  5
883
  8
0
 10
1.943913999999999
 20
4.6631220000000004
 30
0.0
 11
1.967350999999999
 21
4.639683999999999
 31
0.0
  0
LINE
  5
884
  8
0
 10
1.967350999999999
 20
4.639683999999999
 30
0.0
 11
2.029850999999999
 21
4.639683999999999
 31
0.0
  0
LINE
  5
885
  8
0
 10
2.029850999999999
 20
4.639683999999999
 30
0.0
 11
2.053288999999999
 21
4.6631220000000004
 31
0.0
  0
LINE
  5
886
  8
0
 10
2.053288999999999
 20
4.6631220000000004
 30
0.0
 11
2.053288999999999
 21
4.7724970000000004
 31
0.0
  0
LINE
  5
887
  8
0
 10
2.053288999999999
 20
4.7724970000000004
 30
0.0
 11
2.029850999999999
 21
4.795933999999999
 31
0.0
  0
LINE
  5
888
  8
0
 10
2.029850999999999
 20
4.795933999999999
 30
0.0
 11
1.967350999999999
 21
4.795933999999999
 31
0.0
  0
LINE
  5
889
  8
0
 10
1.967350999999999
 20
4.795933999999999
 30
0.0
 11
1.943913999999999
 21
4.7724970000000004
 31
0.0
  0
LINE
  5
88A
  8
0
 10
1.943913999999999
 20
4.7724970000000004
 30
0.0
 11
1.943913999999999
 21
4.6631220000000004
 31
0.0
  0
LINE
  5
88B
  8
0
 10
2.3973070000000001
 20
4.7836439999999998
 30
0.0
 11
2.4129320000000001
 21
4.7992689999999998
 31
0.0
  0
LINE
  5
88C
  8
0
 10
2.4129320000000001
 20
4.7992689999999998
 30
0.0
 11
2.4129320000000001
 21
4.6430189999999998
 31
0.0
  0
LINE
  5
88D
  8
0
 10
2.3973070000000001
 20
4.6430189999999998
 30
0.0
 11
2.4285570000000001
 21
4.6430189999999998
 31
0.0
  0
LINE
  5
88E
  8
0
 10
2.4676200000000001
 20
4.6430189999999998
 30
0.0
 11
2.4676200000000001
 21
4.6508310000000002
 31
0.0
  0
LINE
  5
88F
  8
0
 10
2.6238700000000001
 20
4.7992689999999998
 30
0.0
 11
2.5144950000000001
 21
4.7992689999999998
 31
0.0
  0
LINE
  5
890
  8
0
 10
2.5144950000000001
 20
4.7992689999999998
 30
0.0
 11
2.5144950000000001
 21
4.7367689999999998
 31
0.0
  0
LINE
  5
891
  8
0
 10
2.5144950000000001
 20
4.7367689999999998
 30
0.0
 11
2.6004320000000001
 21
4.7367689999999998
 31
0.0
  0
LINE
  5
892
  8
0
 10
2.6004320000000001
 20
4.7367689999999998
 30
0.0
 11
2.6238700000000001
 21
4.7133310000000002
 31
0.0
  0
LINE
  5
893
  8
0
 10
2.6238700000000001
 20
4.7133310000000002
 30
0.0
 11
2.6238700000000001
 21
4.6664560000000002
 31
0.0
  0
LINE
  5
894
  8
0
 10
2.6238700000000001
 20
4.6664560000000002
 30
0.0
 11
2.6004320000000001
 21
4.6430189999999998
 31
0.0
  0
LINE
  5
895
  8
0
 10
2.6004320000000001
 20
4.6430189999999998
 30
0.0
 11
2.5379320000000001
 21
4.6430189999999998
 31
0.0
  0
LINE
  5
896
  8
0
 10
2.5379320000000001
 20
4.6430189999999998
 30
0.0
 11
2.5144950000000001
 21
4.6664560000000002
 31
0.0
  0
LINE
  5
897
  8
0
 10
2.6707450000000001
 20
4.6664560000000002
 30
0.0
 11
2.6941820000000001
 21
4.6430189999999998
 31
0.0
  0
LINE
  5
898
  8
0
 10
2.6941820000000001
 20
4.6430189999999998
 30
0.0
 11
2.7566820000000001
 21
4.6430189999999998
 31
0.0
  0
LINE
  5
899
  8
0
 10
2.7566820000000001
 20
4.6430189999999998
 30
0.0
 11
2.7801200000000001
 21
4.6664560000000002
 31
0.0
  0
LINE
  5
89A
  8
0
 10
2.7801200000000001
 20
4.6664560000000002
 30
0.0
 11
2.7801200000000001
 21
4.7758310000000002
 31
0.0
  0
LINE
  5
89B
  8
0
 10
2.7801200000000001
 20
4.7758310000000002
 30
0.0
 11
2.7566820000000001
 21
4.7992689999999998
 31
0.0
  0
LINE
  5
89C
  8
0
 10
2.7566820000000001
 20
4.7992689999999998
 30
0.0
 11
2.6941820000000001
 21
4.7992689999999998
 31
0.0
  0
LINE
  5
89D
  8
0
 10
2.6941820000000001
 20
4.7992689999999998
 30
0.0
 11
2.6707450000000001
 21
4.7758310000000002
 31
0.0
  0
LINE
  5
89E
  8
0
 10
2.6707450000000001
 20
4.7758310000000002
 30
0.0
 11
2.6707450000000001
 21
4.6664560000000002
 31
0.0
  0
LINE
  5
89F
  8
0
 10
2.8269950000000001
 20
4.6664560000000002
 30
0.0
 11
2.8504319999999992
 21
4.6430189999999998
 31
0.0
  0
LINE
  5
8A0
  8
0
 10
2.8504319999999992
 20
4.6430189999999998
 30
0.0
 11
2.9129319999999992
 21
4.6430189999999998
 31
0.0
  0
LINE
  5
8A1
  8
0
 10
2.9129319999999992
 20
4.6430189999999998
 30
0.0
 11
2.9363700000000001
 21
4.6664560000000002
 31
0.0
  0
LINE
  5
8A2
  8
0
 10
2.9363700000000001
 20
4.6664560000000002
 30
0.0
 11
2.9363700000000001
 21
4.7758310000000002
 31
0.0
  0
LINE
  5
8A3
  8
0
 10
2.9363700000000001
 20
4.7758310000000002
 30
0.0
 11
2.9129319999999992
 21
4.7992689999999998
 31
0.0
  0
LINE
  5
8A4
  8
0
 10
2.9129319999999992
 20
4.7992689999999998
 30
0.0
 11
2.8504319999999992
 21
4.7992689999999998
 31
0.0
  0
LINE
  5
8A5
  8
0
 10
2.8504319999999992
 20
4.7992689999999998
 30
0.0
 11
2.8269950000000001
 21
4.7758310000000002
 31
0.0
  0
LINE
  5
8A6
  8
0
 10
2.8269950000000001
 20
4.7758310000000002
 30
0.0
 11
2.8269950000000001
 21
4.6664560000000002
 31
0.0
  0
LINE
  5
8A7
  8
0
 10
3.279598
 20
4.7734379999999987
 30
0.0
 11
3.3030349999999991
 21
4.796875
 31
0.0
  0
LINE
  5
8A8
  8
0
 10
3.3030349999999991
 20
4.796875
 30
0.0
 11
3.3655349999999991
 21
4.796875
 31
0.0
  0
LINE
  5
8A9
  8
0
 10
3.3655349999999991
 20
4.796875
 30
0.0
 11
3.388973
 21
4.7734379999999987
 31
0.0
  0
LINE
  5
8AA
  8
0
 10
3.388973
 20
4.7734379999999987
 30
0.0
 11
3.388973
 21
4.7421879999999987
 31
0.0
  0
LINE
  5
8AB
  8
0
 10
3.388973
 20
4.7421879999999987
 30
0.0
 11
3.279598
 21
4.6953129999999987
 31
0.0
  0
LINE
  5
8AC
  8
0
 10
3.279598
 20
4.6953129999999987
 30
0.0
 11
3.279598
 21
4.640625
 31
0.0
  0
LINE
  5
8AD
  8
0
 10
3.279598
 20
4.640625
 30
0.0
 11
3.388973
 21
4.640625
 31
0.0
  0
LINE
  5
8AE
  8
0
 10
3.435848
 20
4.640625
 30
0.0
 11
3.435848
 21
4.6484379999999987
 31
0.0
  0
LINE
  5
8AF
  8
0
 10
3.482723
 20
4.6640629999999987
 30
0.0
 11
3.5061599999999991
 21
4.640625
 31
0.0
  0
LINE
  5
8B0
  8
0
 10
3.5061599999999991
 20
4.640625
 30
0.0
 11
3.5686599999999991
 21
4.640625
 31
0.0
  0
LINE
  5
8B1
  8
0
 10
3.5686599999999991
 20
4.640625
 30
0.0
 11
3.592098
 21
4.6640629999999987
 31
0.0
  0
LINE
  5
8B2
  8
0
 10
3.592098
 20
4.6640629999999987
 30
0.0
 11
3.592098
 21
4.7734379999999987
 31
0.0
  0
LINE
  5
8B3
  8
0
 10
3.592098
 20
4.7734379999999987
 30
0.0
 11
3.5686599999999991
 21
4.796875
 31
0.0
  0
LINE
  5
8B4
  8
0
 10
3.5686599999999991
 20
4.796875
 30
0.0
 11
3.5061599999999991
 21
4.796875
 31
0.0
  0
LINE
  5
8B5
  8
0
 10
3.5061599999999991
 20
4.796875
 30
0.0
 11
3.482723
 21
4.7734379999999987
 31
0.0
  0
LINE
  5
8B6
  8
0
 10
3.482723
 20
4.7734379999999987
 30
0.0
 11
3.482723
 21
4.6640629999999987
 31
0.0
  0
LINE
  5
8B7
  8
0
 10
3.638973
 20
4.6640629999999987
 30
0.0
 11
3.6624099999999991
 21
4.640625
 31
0.0
  0
LINE
  5
8B8
  8
0
 10
3.6624099999999991
 20
4.640625
 30
0.0
 11
3.7249099999999991
 21
4.640625
 31
0.0
  0
LINE
  5
8B9
  8
0
 10
3.7249099999999991
 20
4.640625
 30
0.0
 11
3.748348
 21
4.6640629999999987
 31
0.0
  0
LINE
  5
8BA
  8
0
 10
3.748348
 20
4.6640629999999987
 30
0.0
 11
3.748348
 21
4.7734379999999987
 31
0.0
  0
LINE
  5
8BB
  8
0
 10
3.748348
 20
4.7734379999999987
 30
0.0
 11
3.7249099999999991
 21
4.796875
 31
0.0
  0
LINE
  5
8BC
  8
0
 10
3.7249099999999991
 20
4.796875
 30
0.0
 11
3.6624099999999991
 21
4.796875
 31
0.0
  0
LINE
  5
8BD
  8
0
 10
3.6624099999999991
 20
4.796875
 30
0.0
 11
3.638973
 21
4.7734379999999987
 31
0.0
  0
LINE
  5
8BE
  8
0
 10
3.638973
 20
4.7734379999999987
 30
0.0
 11
3.638973
 21
4.6640629999999987
 31
0.0
  0
LINE
  5
8BF
  8
0
 10
3.795223
 20
4.6640629999999987
 30
0.0
 11
3.8186599999999991
 21
4.640625
 31
0.0
  0
LINE
  5
8C0
  8
0
 10
3.8186599999999991
 20
4.640625
 30
0.0
 11
3.8811599999999991
 21
4.640625
 31
0.0
  0
LINE
  5
8C1
  8
0
 10
3.8811599999999991
 20
4.640625
 30
0.0
 11
3.904598
 21
4.6640629999999987
 31
0.0
  0
LINE
  5
8C2
  8
0
 10
3.904598
 20
4.6640629999999987
 30
0.0
 11
3.904598
 21
4.7734379999999987
 31
0.0
  0
LINE
  5
8C3
  8
0
 10
3.904598
 20
4.7734379999999987
 30
0.0
 11
3.8811599999999991
 21
4.796875
 31
0.0
  0
LINE
  5
8C4
  8
0
 10
3.8811599999999991
 20
4.796875
 30
0.0
 11
3.8186599999999991
 21
4.796875
 31
0.0
  0
LINE
  5
8C5
  8
0
 10
3.8186599999999991
 20
4.796875
 30
0.0
 11
3.795223
 21
4.7734379999999987
 31
0.0
  0
LINE
  5
8C6
  8
0
 10
3.795223
 20
4.7734379999999987
 30
0.0
 11
3.795223
 21
4.6640629999999987
 31
0.0
  0
LINE
  5
8C7
  8
0
 10
-0.8036979999999999
 20
5.0795139999999988
 30
0.0
 11
-0.8036979999999999
 21
5.2357639999999988
 31
0.0
  0
LINE
  5
8C8
  8
0
 10
-0.8036979999999999
 20
5.2357639999999988
 30
0.0
 11
-0.717761
 21
5.2357639999999988
 31
0.0
  0
LINE
  5
8C9
  8
0
 10
-0.717761
 20
5.2357639999999988
 30
0.0
 11
-0.6943229999999999
 21
5.2123269999999993
 31
0.0
  0
LINE
  5
8CA
  8
0
 10
-0.6943229999999999
 20
5.2123269999999993
 30
0.0
 11
-0.6943229999999999
 21
5.1810769999999993
 31
0.0
  0
LINE
  5
8CB
  8
0
 10
-0.6943229999999999
 20
5.1810769999999993
 30
0.0
 11
-0.717761
 21
5.1576389999999988
 31
0.0
  0
LINE
  5
8CC
  8
0
 10
-0.717761
 20
5.1576389999999988
 30
0.0
 11
-0.6943229999999999
 21
5.1342019999999993
 31
0.0
  0
LINE
  5
8CD
  8
0
 10
-0.6943229999999999
 20
5.1342019999999993
 30
0.0
 11
-0.6943229999999999
 21
5.1029519999999993
 31
0.0
  0
LINE
  5
8CE
  8
0
 10
-0.6943229999999999
 20
5.1029519999999993
 30
0.0
 11
-0.717761
 21
5.0795139999999988
 31
0.0
  0
LINE
  5
8CF
  8
0
 10
-0.717761
 20
5.0795139999999988
 30
0.0
 11
-0.8036979999999999
 21
5.0795139999999988
 31
0.0
  0
LINE
  5
8D0
  8
0
 10
-0.717761
 20
5.1576389999999988
 30
0.0
 11
-0.8036979999999999
 21
5.1576389999999988
 31
0.0
  0
LINE
  5
8D1
  8
0
 10
0.8001099999999999
 20
5.1541889999999988
 30
0.0
 11
0.7766720000000001
 21
5.1776260000000001
 31
0.0
  0
LINE
  5
8D2
  8
0
 10
0.7766720000000001
 20
5.1776260000000001
 30
0.0
 11
0.7141720000000001
 21
5.1776260000000001
 31
0.0
  0
LINE
  5
8D3
  8
0
 10
0.7141720000000001
 20
5.1776260000000001
 30
0.0
 11
0.690735
 21
5.1541889999999988
 31
0.0
  0
LINE
  5
8D4
  8
0
 10
0.690735
 20
5.1541889999999988
 30
0.0
 11
0.690735
 21
5.0448139999999988
 31
0.0
  0
LINE
  5
8D5
  8
0
 10
0.690735
 20
5.0448139999999988
 30
0.0
 11
0.7141720000000001
 21
5.0213760000000001
 31
0.0
  0
LINE
  5
8D6
  8
0
 10
0.7141720000000001
 20
5.0213760000000001
 30
0.0
 11
0.7766720000000001
 21
5.0213760000000001
 31
0.0
  0
LINE
  5
8D7
  8
0
 10
0.7766720000000001
 20
5.0213760000000001
 30
0.0
 11
0.8001099999999999
 21
5.0448139999999988
 31
0.0
  0
LINE
  5
8D8
  8
0
 10
-0.049693
 20
4.6777790000000001
 30
0.0
 11
-0.01063
 21
4.8340290000000001
 31
0.0
  0
LINE
  5
8D9
  8
0
 10
-0.01063
 20
4.8340290000000001
 30
0.0
 11
0.02062
 21
4.8340290000000001
 31
0.0
  0
LINE
  5
8DA
  8
0
 10
0.02062
 20
4.8340290000000001
 30
0.0
 11
0.059682
 21
4.6777790000000001
 31
0.0
  0
LINE
  5
8DB
  8
0
 10
-0.032115
 20
4.7480909999999996
 30
0.0
 11
0.042104
 21
4.7480909999999996
 31
0.0
  0
LINE
  5
8DC
  8
0
 10
-1.636719
 20
3.6094010000000001
 30
0.0
 11
-1.636719
 21
3.7656510000000001
 31
0.0
  0
LINE
  5
8DD
  8
0
 39
1.9999979999999991
 10
-0.7449630000000002
 20
4.8213660000000003
 30
1.9999979999999991
 11
-0.7449630000000002
 21
4.9713659999999997
 31
1.9999979999999991
  0
LINE
  5
8DE
  8
0
 39
1.9999979999999991
 10
-0.726765
 20
4.8963660000000004
 30
1.9999979999999991
 11
-0.763162
 21
4.8963660000000004
 31
1.9999979999999991
  0
LINE
  5
8DF
  8
0
 39
1.9999979999999991
 10
-0.7449630000000002
 20
4.9713659999999997
 30
1.9999979999999991
 11
-0.763162
 21
4.8963660000000004
 31
1.9999979999999991
  0
LINE
  5
8E0
  8
0
 39
1.9999979999999991
 10
-0.726765
 20
4.8963660000000004
 30
1.9999979999999991
 11
-0.7449630000000002
 21
4.9713659999999997
 31
1.9999979999999991
  0
LINE
  5
8E1
  8
0
 39
0.5550100000000001
 10
-3.515228
 20
2.8795259999999989
 30
0.5550100000000001
 11
-2.984728
 21
2.8795259999999989
 31
0.5550100000000001
  0
ARC
  5
8E2
  8
0
 10
-2.984728
 20
3.0125259999999989
 30
0.5550100000000001
 40
0.133
 50
270.0
 51
90.0
  0
LINE
  5
8E3
  8
0
 39
0.5550100000000001
 10
-2.984728
 20
3.1455259999999989
 30
0.5550100000000001
 11
-3.0766810000000002
 21
3.1455259999999989
 31
0.5550100000000001
  0
ARC
  5
8E4
  8
0
 10
-3.0766810000000002
 20
3.1755259999999992
 30
0.5550100000000001
 40
0.03
 50
209.66640199999989
 51
270.0
  0
ARC
  5
8E5
  8
0
 10
-3.2487279999999989
 20
3.0775259999999989
 30
0.5550100000000001
 40
0.168
 50
29.666402000000001
 51
150.33359799999991
  0
ARC
  5
8E6
  8
0
 10
-3.4207739999999989
 20
3.1755259999999992
 30
0.5550100000000001
 40
0.03
 50
270.0
 51
330.33359799999988
  0
LINE
  5
8E7
  8
0
 39
0.5550100000000001
 10
-3.4207739999999989
 20
3.1455259999999989
 30
0.5550100000000001
 11
-3.515228
 21
3.1455259999999989
 31
0.5550100000000001
  0
ARC
  5
8E8
  8
0
 10
-3.515228
 20
3.0125259999999989
 30
0.5550100000000001
 40
0.133
 50
90.0
 51
270.0
  0
ARC
  5
8E9
  8
0
 10
-3.249978
 20
2.419525999999999
 30
0.713679
 40
0.1715
 50
32.398348999999989
 51
147.601651
  0
ARC
  5
8EA
  8
0
 10
-3.249978
 20
-0.663974
 30
0.713679
 40
0.172
 50
27.903272999999992
 51
152.09672699999999
  0
LINE
  5
8EB
  8
0
 39
1.7136779999999989
 10
-2.754977999999999
 20
-0.225974
 30
0.713679
 11
-2.754977999999999
 21
-0.225974
 31
0.713679
  0
LINE
  5
8EC
  8
0
 39
0.713679
 10
-3.7074780000000001
 20
1.0340259999999999
 30
0.713679
 11
-2.792478
 21
1.0340259999999999
 31
0.713679
  0
ARC
  5
8ED
  8
0
 10
-2.792478
 20
1.1400259999999991
 30
0.713679
 40
0.106
 50
270.0
 51
90.0
  0
LINE
  5
8EE
  8
0
 39
0.713679
 10
-2.792478
 20
1.2460260000000001
 30
0.713679
 11
-3.078921999999999
 21
1.2460260000000001
 31
0.713679
  0
ARC
  5
8EF
  8
0
 10
-3.078921999999999
 20
1.2760260000000001
 30
0.713679
 40
0.03
 50
211.90658999999991
 51
270.0
  0
ARC
  5
8F0
  8
0
 10
-3.249978
 20
1.1695260000000001
 30
0.713679
 40
0.1715
 50
31.906590000000001
 51
148.09340999999989
  0
ARC
  5
8F1
  8
0
 10
-3.4210329999999991
 20
1.2760260000000001
 30
0.713679
 40
0.03
 50
270.0
 51
328.09341000000001
  0
LINE
  5
8F2
  8
0
 39
0.713679
 10
-3.4210329999999991
 20
1.2460260000000001
 30
0.713679
 11
-3.7074780000000001
 21
1.2460260000000001
 31
0.713679
  0
ARC
  5
8F3
  8
0
 10
-3.7074780000000001
 20
1.1400259999999991
 30
0.713679
 40
0.106
 50
90.0
 51
270.0
  0
LINE
  5
8F4
  8
0
 39
0.713679
 10
-3.608477999999999
 20
1.6270260000000001
 30
0.713679
 11
-2.8914779999999989
 21
1.6270260000000001
 31
0.713679
  0
ARC
  5
8F5
  8
0
 10
-2.8914779999999989
 20
1.7650259999999991
 30
0.713679
 40
0.138
 50
270.0
 51
90.0
  0
LINE
  5
8F6
  8
0
 39
0.713679
 10
-2.8914779999999989
 20
1.903025999999999
 30
0.713679
 11
-3.061987999999999
 21
1.903025999999999
 31
0.713679
  0
ARC
  5
8F7
  8
0
 10
-3.061987999999999
 20
1.933025999999999
 30
0.713679
 40
0.03
 50
216.38070200000001
 51
270.0
  0
ARC
  5
8F8
  8
0
 10
-3.249978
 20
1.794525999999999
 30
0.713679
 40
0.2035
 50
36.380701999999999
 51
143.6192979999999
  0
ARC
  5
8F9
  8
0
 10
-3.4379669999999991
 20
1.933025999999999
 30
0.713679
 40
0.03
 50
270.0
 51
323.61929800000001
  0
LINE
  5
8FA
  8
0
 39
0.713679
 10
-3.4379669999999991
 20
1.903025999999999
 30
0.713679
 11
-3.608477999999999
 21
1.903025999999999
 31
0.713679
  0
ARC
  5
8FB
  8
0
 10
-3.608477999999999
 20
1.7650259999999991
 30
0.713679
 40
0.138
 50
90.0
 51
270.0
  0
LINE
  5
8FC
  8
0
 39
0.687979
 10
-3.5167280000000001
 20
3.5380259999999999
 30
0.687979
 11
-2.983228
 21
3.5380259999999999
 31
0.687979
  0
LINE
  5
8FD
  8
0
 39
0.687979
 10
-2.983228
 20
3.7370260000000002
 30
0.687979
 11
-3.0978309999999998
 21
3.7370260000000002
 31
0.687979
  0
LINE
  5
8FE
  8
0
 39
0.687979
 10
-3.399624999999999
 20
3.7370260000000002
 30
0.687979
 11
-3.5167280000000001
 21
3.7370260000000002
 31
0.687979
  0
ARC
  5
8FF
  8
0
 10
-2.983228
 20
3.6375259999999998
 30
0.687979
 40
0.0995
 50
270.0
 51
90.0
  0
ARC
  5
900
  8
0
 10
-3.5167280000000001
 20
3.6375259999999998
 30
0.687979
 40
0.0995
 50
90.0
 51
269.99994299999997
  0
ARC
  5
901
  8
0
 10
-3.2487279999999989
 20
3.7025260000000002
 30
0.687979
 40
0.1335
 50
23.464255999999988
 51
156.53580099999991
  0
ARC
  5
902
  8
0
 10
-3.0978309999999998
 20
3.7680259999999999
 30
0.687979
 40
0.031
 50
203.46419899999989
 51
270.0
  0
ARC
  5
903
  8
0
 10
-3.399624999999999
 20
3.7680259999999999
 30
0.687979
 40
0.031
 50
270.0
 51
336.53580099999999
  0
LINE
  5
904
  8
0
 39
0.713679
 10
-3.6064780000000001
 20
2.2830259999999991
 30
0.713679
 11
-2.8929779999999989
 21
2.2830259999999991
 31
0.713679
  0
LINE
  5
905
  8
0
 39
0.713679
 10
-2.8929779999999989
 20
2.4970259999999991
 30
0.713679
 11
-3.078921999999999
 21
2.4970259999999991
 31
0.713679
  0
LINE
  5
906
  8
0
 39
0.713679
 10
-3.4210329999999991
 20
2.4970259999999991
 30
0.713679
 11
-3.6069779999999989
 21
2.4970259999999991
 31
0.713679
  0
ARC
  5
907
  8
0
 10
-3.078997999999999
 20
2.5280259999999992
 30
0.713679
 40
0.031
 50
212.398349
 51
270.0
  0
ARC
  5
908
  8
0
 10
-3.420957
 20
2.5280259999999992
 30
0.713679
 40
0.031
 50
270.0
 51
327.601651
  0
ARC
  5
909
  8
0
 10
-2.8929779999999989
 20
2.3900259999999989
 30
0.713679
 40
0.107
 50
270.0
 51
89.999943000000002
  0
ARC
  5
90A
  8
0
 10
-3.6069779999999989
 20
2.3900259999999989
 30
0.713679
 40
0.107
 50
90.0
 51
269.99994299999997
  0
LINE
  5
90B
  8
0
 39
0.713679
 10
-3.7064779999999988
 20
0.375526
 30
0.713679
 11
-2.793477999999999
 21
0.375526
 31
0.713679
  0
LINE
  5
90C
  8
0
 39
0.713679
 10
-2.793477999999999
 20
0.6545260000000001
 30
0.713679
 11
-3.0649809999999991
 21
0.6545260000000001
 31
0.713679
  0
LINE
  5
90D
  8
0
 39
0.713679
 10
-3.4349750000000001
 20
0.6545260000000001
 30
0.713679
 11
-3.7064779999999988
 21
0.6545260000000001
 31
0.713679
  0
ARC
  5
90E
  8
0
 10
-3.7064779999999988
 20
0.515026
 30
0.713679
 40
0.1395
 50
90.0
 51
270.0
  0
ARC
  5
90F
  8
0
 10
-2.793477999999999
 20
0.515026
 30
0.713679
 40
0.1395
 50
270.0
 51
89.999943000000002
  0
ARC
  5
910
  8
0
 10
-3.249978
 20
0.5445260000000001
 30
0.713679
 40
0.202
 50
37.117263000000001
 51
142.882679
  0
ARC
  5
911
  8
0
 10
-3.4349750000000001
 20
0.684526
 30
0.713679
 40
0.03
 50
270.0
 51
322.88273700000002
  0
ARC
  5
912
  8
0
 10
-3.0649809999999991
 20
0.684526
 30
0.713679
 40
0.03
 50
217.11726300000001
 51
270.0
  0
LINE
  5
913
  8
0
 39
0.713679
 10
-3.7449779999999988
 20
-0.227974
 30
0.713679
 11
-2.754977999999999
 21
-0.227974
 31
0.713679
  0
LINE
  5
914
  8
0
 39
0.713679
 10
-3.426571
 20
-0.005974
 30
0.713679
 11
-3.7449779999999988
 21
-0.005974
 31
0.713679
  0
LINE
  5
915
  8
0
 39
0.713679
 10
-2.754977999999999
 20
-0.005974
 30
0.713679
 11
-3.073385
 21
-0.005974
 31
0.713679
  0
ARC
  5
916
  8
0
 10
-3.7449779999999988
 20
-0.116974
 30
0.71368
 40
0.111
 50
90.0
 51
269.99994299999997
  0
ARC
  5
917
  8
0
 10
-2.754977999999999
 20
-0.116974
 30
0.713679
 40
0.111
 50
270.0
 51
89.999943000000002
  0
ARC
  5
918
  8
0
 10
-3.249978
 20
-0.038974
 30
0.713679
 40
0.138
 50
28.52955
 51
151.470393
  0
ARC
  5
919
  8
0
 10
-3.426571
 20
0.057026
 30
0.713679
 40
0.063
 50
270.0
 51
331.47045000000003
  0
ARC
  5
91A
  8
0
 10
-3.073385
 20
0.057026
 30
0.713679
 40
0.063
 50
208.52954999999989
 51
270.0
  0
LINE
  5
91B
  8
0
 39
0.713679
 10
-3.7464779999999989
 20
-0.8839739999999999
 30
0.713679
 11
-2.753477999999999
 21
-0.8839739999999999
 31
0.713679
  0
LINE
  5
91C
  8
0
 39
0.713679
 10
-2.753477999999999
 20
-0.599974
 30
0.713679
 11
-3.0705789999999991
 21
-0.599974
 31
0.713679
  0
LINE
  5
91D
  8
0
 39
0.713679
 10
-3.4293769999999988
 20
-0.599974
 30
0.713679
 11
-3.7464779999999989
 21
-0.599974
 31
0.713679
  0
ARC
  5
91E
  8
0
 10
-3.7464779999999989
 20
-0.741974
 30
0.713679
 40
0.142
 50
90.0
 51
270.0
  0
ARC
  5
91F
  8
0
 10
-2.753477999999999
 20
-0.741974
 30
0.713679
 40
0.142
 50
270.0
 51
90.0
  0
ARC
  5
920
  8
0
 10
-3.0705789999999991
 20
-0.568974
 30
0.713679
 40
0.031
 50
207.9032729999999
 51
270.0
  0
ARC
  5
921
  8
0
 10
-3.4293769999999988
 20
-0.568974
 30
0.713679
 40
0.031
 50
270.0
 51
332.09672699999999
  0
LINE
  5
922
  8
0
 39
0.713679
 10
-3.7524799999999998
 20
-1.509973999999999
 30
0.713679
 11
-2.7474759999999989
 21
-1.509973999999999
 31
0.713679
  0
ARC
  5
923
  8
0
 10
-2.7474759999999989
 20
-1.4049739999999991
 30
0.713679
 40
0.105
 50
270.0
 51
70.505754999999994
  0
LINE
  5
924
  8
0
 39
0.713679
 10
-2.712435999999999
 20
-1.3059929999999991
 30
0.713679
 11
-3.2149359999999998
 21
-1.1209929999999999
 31
0.713679
  0
ARC
  5
925
  8
0
 10
-3.2499759999999989
 20
-1.219973999999999
 30
0.713679
 40
0.105
 50
70.50580699999999
 51
109.494055
  0
LINE
  5
926
  8
0
 39
0.713679
 10
-3.285015
 20
-1.1209929999999999
 30
0.713679
 11
-3.7875190000000001
 21
-1.3059929999999991
 31
0.713679
  0
ARC
  5
927
  8
0
 10
-3.7524799999999998
 20
-1.4049739999999991
 30
0.713679
 40
0.105
 50
109.494055
 51
270.0
  0
LINE
  5
928
  8
0
 39
0.713679
 10
-3.7482259999999998
 20
-2.1679740000000001
 30
0.713679
 11
-2.7517299999999989
 21
-2.1679740000000001
 31
0.713679
  0
LINE
  5
929
  8
0
 39
0.713679
 10
-3.2976070000000002
 20
-1.715463999999999
 30
0.713679
 11
-3.7961629999999991
 21
-1.899009999999999
 31
0.713679
  0
LINE
  5
92A
  8
0
 39
0.713679
 10
-2.7037919999999991
 20
-1.8990109999999989
 30
0.713679
 11
-3.2023450000000002
 21
-1.715463999999999
 31
0.713679
  0
ARC
  5
92B
  8
0
 10
-2.7517299999999989
 20
-2.02922
 30
0.713679
 40
0.138754
 50
270.0
 51
69.78828399999999
  0
ARC
  5
92C
  8
0
 10
-3.7482259999999998
 20
-2.02922
 30
0.713679
 40
0.138754
 50
110.2115179999999
 51
269.99994299999997
  0
ARC
  5
92D
  8
0
 10
-3.2499759999999989
 20
-1.8448409999999991
 30
0.713679
 40
0.137866
 50
69.788341000000003
 51
110.211461
  0
LINE
  5
92E
  8
0
 39
0.713679
 10
-3.7299799999999999
 20
-2.7549540000000001
 30
0.713679
 11
-2.7699759999999989
 21
-2.7549540000000001
 31
0.713679
  0
ARC
  5
92F
  8
0
 10
-2.7699759999999989
 20
-2.6324540000000001
 30
0.713679
 40
0.1225
 50
270.0
 51
73.828702000000007
  0
LINE
  5
930
  8
0
 39
0.713679
 10
-2.735859
 20
-2.514800999999999
 30
0.713679
 11
-3.2221449999999998
 21
-2.373950999999999
 31
0.713679
  0
ARC
  5
931
  8
0
 10
-3.2499950000000002
 20
-2.4699949999999991
 30
0.713679
 40
0.1
 50
73.828986999999998
 51
89.999943000000002
  0
ARC
  5
932
  8
0
 10
-3.2499950000000002
 20
-2.4699949999999991
 30
0.713679
 40
0.1
 50
89.999943000000002
 51
106.1721059999999
  0
LINE
  5
933
  8
0
 39
0.713679
 10
-3.2778469999999991
 20
-2.3739520000000001
 30
0.713679
 11
-3.764098999999999
 21
-2.514800999999999
 31
0.713679
  0
ARC
  5
934
  8
0
 10
-3.7299799999999999
 20
-2.6324540000000001
 30
0.713679
 40
0.1225
 50
106.172336
 51
270.0
  0
LINE
  5
935
  8
0
 39
0.713679
 10
-3.7270660000000002
 20
-3.413953999999999
 30
0.713679
 11
-2.7728899999999999
 21
-3.413953999999999
 31
0.713679
  0
LINE
  5
936
  8
0
 39
0.713679
 10
-2.7292349999999992
 20
-3.106322
 30
0.713679
 11
-3.2126809999999999
 21
-2.9662950000000001
 31
0.713679
  0
ARC
  5
937
  8
0
 10
-3.2499950000000002
 20
-3.0949949999999991
 30
0.713679
 40
0.134
 50
73.831395999999984
 51
89.999943000000002
  0
ARC
  5
938
  8
0
 10
-3.2499950000000002
 20
-3.0949949999999991
 30
0.713679
 40
0.134
 50
89.999943000000002
 51
106.1696969999999
  0
LINE
  5
939
  8
0
 39
0.713679
 10
-3.287312
 20
-2.9662959999999989
 30
0.713679
 11
-3.7707239999999991
 21
-3.1063230000000002
 31
0.713679
  0
ARC
  5
93A
  8
0
 10
-3.7270660000000002
 20
-3.257039999999999
 30
0.713679
 40
0.156913
 50
106.15441199999999
 51
269.99994299999997
  0
ARC
  5
93B
  8
0
 10
-2.7728899999999999
 20
-3.2570410000000001
 30
0.713679
 40
0.156913
 50
270.0
 51
73.846679000000009
  0
LINE
  5
93C
  8
0
 39
0.713679
 10
-3.7270650000000001
 20
-3.381953999999999
 30
0.713679
 11
-2.7728899999999999
 21
-3.381953999999999
 31
0.713679
  0
ARC
  5
93D
  8
0
 10
-2.7728899999999999
 20
-3.2570410000000001
 30
0.713679
 40
0.124913
 50
270.0
 51
73.846579000000006
  0
LINE
  5
93E
  8
0
 39
0.713679
 10
-2.7381380000000002
 20
-3.1370599999999991
 30
0.713679
 11
-3.2215880000000001
 21
-2.9970300000000001
 31
0.713679
  0
ARC
  5
93F
  8
0
 10
-3.2499950000000002
 20
-3.0949949999999991
 30
0.713679
 40
0.102
 50
73.829492999999985
 51
90.000084000000001
  0
ARC
  5
940
  8
0
 10
-3.2499950000000002
 20
-3.0949949999999991
 30
0.713679
 40
0.102
 50
89.999943000000002
 51
106.171933
  0
LINE
  5
941
  8
0
 39
0.713679
 10
-3.2784040000000001
 20
-2.9970309999999998
 30
0.713679
 11
-3.7618199999999988
 21
-3.1370589999999989
 31
0.713679
  0
ARC
  5
942
  8
0
 10
-3.7270650000000001
 20
-3.257039999999999
 30
0.713679
 40
0.124913
 50
106.154397
 51
270.0
  0
LINE
  5
943
  8
0
 39
0.713679
 10
-3.7299809999999991
 20
-2.7229540000000001
 30
0.713679
 11
-2.7699759999999989
 21
-2.7229540000000001
 31
0.713679
  0
ARC
  5
944
  8
0
 10
-2.7699759999999989
 20
-2.6324540000000001
 30
0.713679
 40
0.0905
 50
270.0
 51
73.825766999999999
  0
LINE
  5
945
  8
0
 39
0.713679
 10
-2.7447659999999989
 20
-2.5455359999999998
 30
0.713679
 11
-3.2310529999999988
 21
-2.404685999999999
 31
0.713679
  0
ARC
  5
946
  8
0
 10
-3.249994
 20
-2.4699949999999991
 30
0.713679
 40
0.068
 50
73.826548000000003
 51
90.000687999999997
  0
ARC
  5
947
  8
0
 10
-3.2499950000000002
 20
-2.4699949999999991
 30
0.713679
 40
0.068
 50
89.999943000000002
 51
106.175887
  0
LINE
  5
948
  8
0
 39
0.713679
 10
-3.268939
 20
-2.404687
 30
0.713679
 11
-3.7551909999999999
 21
-2.5455359999999998
 31
0.713679
  0
ARC
  5
949
  8
0
 10
-3.7299809999999991
 20
-2.6324540000000001
 30
0.713679
 40
0.0905
 50
106.174232
 51
270.0
  0
LINE
  5
94A
  8
0
 39
0.713679
 10
-3.7482250000000001
 20
-2.135974
 30
0.713679
 11
-2.7517299999999989
 21
-2.135974
 31
0.713679
  0
ARC
  5
94B
  8
0
 10
-2.7517299999999989
 20
-2.02922
 30
0.713679
 40
0.106754
 50
270.0
 51
69.788431000000003
  0
LINE
  5
94C
  8
0
 39
0.713679
 10
-2.714847999999999
 20
-1.9290400000000001
 30
0.713679
 11
-3.2134
 21
-1.745493999999999
 31
0.713679
  0
ARC
  5
94D
  8
0
 10
-3.2499759999999989
 20
-1.8448409999999991
 30
0.713679
 40
0.105866
 50
69.788431000000003
 51
110.21141399999991
  0
LINE
  5
94E
  8
0
 39
0.713679
 10
-3.2865509999999998
 20
-1.745493999999999
 30
0.713679
 11
-3.7851069999999991
 21
-1.9290389999999991
 31
0.713679
  0
ARC
  5
94F
  8
0
 10
-3.7482250000000001
 20
-2.02922
 30
0.713679
 40
0.106754
 50
110.21141399999991
 51
270.0
  0
LINE
  5
950
  8
0
 39
0.713679
 10
-3.7464779999999989
 20
-0.851974
 30
0.713679
 11
-2.753477999999999
 21
-0.851974
 31
0.713679
  0
ARC
  5
951
  8
0
 10
-2.753477999999999
 20
-0.741974
 30
0.713679
 40
0.11
 50
270.0
 51
90.0
  0
LINE
  5
952
  8
0
 39
0.713679
 10
-2.753477999999999
 20
-0.631974
 30
0.713679
 11
-3.0705789999999991
 21
-0.631974
 31
0.713679
  0
ARC
  5
953
  8
0
 10
-3.0705789999999991
 20
-0.568974
 30
0.713679
 40
0.063
 50
207.9032719999999
 51
270.0
  0
ARC
  5
954
  8
0
 10
-3.249978
 20
-0.663974
 30
0.713679
 40
0.14
 50
27.903272000000001
 51
152.09672800000001
  0
ARC
  5
955
  8
0
 10
-3.4293769999999988
 20
-0.568974
 30
0.713679
 40
0.063
 50
270.0
 51
332.09672799999998
  0
LINE
  5
956
  8
0
 39
0.713679
 10
-3.4293769999999988
 20
-0.631974
 30
0.713679
 11
-3.7464779999999989
 21
-0.631974
 31
0.713679
  0
ARC
  5
957
  8
0
 10
-3.7464779999999989
 20
-0.741974
 30
0.713679
 40
0.11
 50
90.0
 51
270.0
  0
LINE
  5
958
  8
0
 39
0.713679
 10
-3.7524799999999998
 20
-1.477973999999999
 30
0.713679
 11
-2.7474759999999989
 21
-1.477973999999999
 31
0.713679
  0
ARC
  5
959
  8
0
 10
-2.7474759999999989
 20
-1.4049739999999991
 30
0.713679
 40
0.073
 50
270.0
 51
70.648751000000004
  0
LINE
  5
95A
  8
0
 39
0.713679
 10
-2.723287
 20
-1.336098
 30
0.713679
 11
-3.2257869999999991
 21
-1.1510979999999991
 31
0.713679
  0
ARC
  5
95B
  8
0
 10
-3.2499759999999989
 20
-1.219973999999999
 30
0.713679
 40
0.073
 50
70.648794999999993
 51
109.35124999999989
  0
LINE
  5
95C
  8
0
 39
0.713679
 10
-3.2741649999999991
 20
-1.1510979999999991
 30
0.713679
 11
-3.776667999999999
 21
-1.336098
 31
0.713679
  0
ARC
  5
95D
  8
0
 10
-3.7524799999999998
 20
-1.4049739999999991
 30
0.713679
 40
0.073
 50
109.3510379999999
 51
270.0
  0
LINE
  5
95E
  8
0
 39
0.713679
 10
-3.7449779999999988
 20
-0.195974
 30
0.713679
 11
-2.754977999999999
 21
-0.195974
 31
0.713679
  0
ARC
  5
95F
  8
0
 10
-2.754977999999999
 20
-0.116974
 30
0.713679
 40
0.079
 50
270.0
 51
90.0
  0
LINE
  5
960
  8
0
 39
0.713679
 10
-2.754977999999999
 20
-0.037974
 30
0.713679
 11
-3.073385
 21
-0.037974
 31
0.713679
  0
ARC
  5
961
  8
0
 10
-3.073385
 20
0.057026
 30
0.713679
 40
0.095
 50
208.52947599999999
 51
270.0
  0
ARC
  5
962
  8
0
 10
-3.249978
 20
-0.038974
 30
0.713679
 40
0.106
 50
28.529475999999999
 51
151.47052400000001
  0
ARC
  5
963
  8
0
 10
-3.426571
 20
0.057026
 30
0.713679
 40
0.095
 50
270.0
 51
331.47052400000001
  0
LINE
  5
964
  8
0
 39
0.713679
 10
-3.426571
 20
-0.037974
 30
0.713679
 11
-3.7449779999999988
 21
-0.037974
 31
0.713679
  0
ARC
  5
965
  8
0
 10
-3.7449779999999988
 20
-0.116974
 30
0.71368
 40
0.079
 50
90.0
 51
270.0
  0
LINE
  5
966
  8
0
 39
0.713679
 10
-3.7064779999999988
 20
0.407526
 30
0.713679
 11
-2.793477999999999
 21
0.407526
 31
0.713679
  0
ARC
  5
967
  8
0
 10
-2.793477999999999
 20
0.515026
 30
0.713679
 40
0.1075
 50
270.0
 51
90.0
  0
LINE
  5
968
  8
0
 39
0.713679
 10
-2.793477999999999
 20
0.6225260000000001
 30
0.713679
 11
-3.0649809999999991
 21
0.6225260000000001
 31
0.713679
  0
ARC
  5
969
  8
0
 10
-3.0649809999999991
 20
0.684526
 30
0.713679
 40
0.062
 50
217.117324
 51
270.0
  0
ARC
  5
96A
  8
0
 10
-3.249978
 20
0.5445260000000001
 30
0.713679
 40
0.17
 50
37.117323999999989
 51
142.88267599999989
  0
ARC
  5
96B
  8
0
 10
-3.4349750000000001
 20
0.684526
 30
0.713679
 40
0.062
 50
270.0
 51
322.882676
  0
LINE
  5
96C
  8
0
 39
0.713679
 10
-3.4349750000000001
 20
0.6225260000000001
 30
0.713679
 11
-3.7064779999999988
 21
0.6225260000000001
 31
0.713679
  0
ARC
  5
96D
  8
0
 10
-3.7064779999999988
 20
0.515026
 30
0.713679
 40
0.1075
 50
90.0
 51
270.0
  0
LINE
  5
96E
  8
0
 39
0.713679
 10
-3.7074780000000001
 20
1.066025999999999
 30
0.713679
 11
-2.792478
 21
1.066025999999999
 31
0.713679
  0
ARC
  5
96F
  8
0
 10
-2.792478
 20
1.1400259999999991
 30
0.713679
 40
0.074
 50
270.0
 51
90.0
  0
LINE
  5
970
  8
0
 39
0.713679
 10
-2.792478
 20
1.214026
 30
0.713679
 11
-3.078921999999999
 21
1.214026
 31
0.713679
  0
ARC
  5
971
  8
0
 10
-3.078921999999999
 20
1.2760260000000001
 30
0.713679
 40
0.062
 50
211.90646799999999
 51
270.0
  0
ARC
  5
972
  8
0
 10
-3.249978
 20
1.1695260000000001
 30
0.713679
 40
0.1395
 50
31.906468
 51
148.09353200000001
  0
ARC
  5
973
  8
0
 10
-3.4210339999999988
 20
1.2760260000000001
 30
0.713679
 40
0.062
 50
270.0
 51
328.09353199999993
  0
LINE
  5
974
  8
0
 39
0.713679
 10
-3.4210339999999988
 20
1.214026
 30
0.713679
 11
-3.7074780000000001
 21
1.214026
 31
0.713679
  0
ARC
  5
975
  8
0
 10
-3.7074780000000001
 20
1.1400259999999991
 30
0.713679
 40
0.074
 50
90.0
 51
270.0
  0
LINE
  5
976
  8
0
 39
0.5550100000000001
 10
-3.515228
 20
2.9115259999999989
 30
0.5550100000000001
 11
-2.984728
 21
2.9115259999999989
 31
0.5550100000000001
  0
ARC
  5
977
  8
0
 10
-2.984728
 20
3.0125259999999989
 30
0.5550100000000001
 40
0.101
 50
270.0
 51
90.0
  0
LINE
  5
978
  8
0
 39
0.5550100000000001
 10
-2.984728
 20
3.1135259999999989
 30
0.5550100000000001
 11
-3.0766810000000002
 21
3.1135259999999989
 31
0.5550100000000001
  0
ARC
  5
979
  8
0
 10
-3.0766810000000002
 20
3.1755259999999992
 30
0.5550100000000001
 40
0.062
 50
209.66627500000001
 51
270.0
  0
ARC
  5
97A
  8
0
 10
-3.2487279999999989
 20
3.0775259999999989
 30
0.5550100000000001
 40
0.136
 50
29.666274999999992
 51
150.3337249999999
  0
ARC
  5
97B
  8
0
 10
-3.420774999999999
 20
3.1755259999999992
 30
0.5550100000000001
 40
0.062
 50
270.0
 51
330.33372500000002
  0
LINE
  5
97C
  8
0
 39
0.5550100000000001
 10
-3.420774999999999
 20
3.1135259999999989
 30
0.5550100000000001
 11
-3.515228
 21
3.1135259999999989
 31
0.5550100000000001
  0
ARC
  5
97D
  8
0
 10
-3.515228
 20
3.0125259999999989
 30
0.5550100000000001
 40
0.101
 50
90.0
 51
270.0
  0
LINE
  5
97E
  8
0
 39
0.687979
 10
-3.5167280000000001
 20
3.5700259999999999
 30
0.687979
 11
-2.983228
 21
3.5700259999999999
 31
0.687979
  0
ARC
  5
97F
  8
0
 10
-2.983228
 20
3.6375259999999998
 30
0.687979
 40
0.0675
 50
270.0
 51
90.0
  0
LINE
  5
980
  8
0
 39
0.687979
 10
-2.983228
 20
3.7050260000000002
 30
0.687979
 11
-3.0978309999999998
 21
3.7050260000000002
 31
0.687979
  0
ARC
  5
981
  8
0
 10
-3.0978309999999998
 20
3.7680259999999999
 30
0.687979
 40
0.063
 50
203.46435699999989
 51
270.0
  0
ARC
  5
982
  8
0
 10
-3.2487279999999989
 20
3.7025260000000002
 30
0.687979
 40
0.1015
 50
23.464356999999989
 51
156.53564299999999
  0
ARC
  5
983
  8
0
 10
-3.399624999999999
 20
3.7680259999999999
 30
0.687979
 40
0.063
 50
270.0
 51
336.53564299999988
  0
LINE
  5
984
  8
0
 39
0.687979
 10
-3.399624999999999
 20
3.7050260000000002
 30
0.687979
 11
-3.5167280000000001
 21
3.7050260000000002
 31
0.687979
  0
ARC
  5
985
  8
0
 10
-3.5167280000000001
 20
3.6375259999999998
 30
0.687979
 40
0.0675
 50
90.0
 51
270.0
  0
LINE
  5
986
  8
0
 39
0.713679
 10
-3.078997999999999
 20
2.4650259999999991
 30
0.713679
 11
-2.8929779999999989
 21
2.4650259999999991
 31
0.713679
  0
ARC
  5
987
  8
0
 10
-2.8929779999999989
 20
2.3900259999999989
 30
0.713679
 40
0.075
 50
270.0
 51
90.0
  0
LINE
  5
988
  8
0
 39
0.713679
 10
-2.8929779999999989
 20
2.315026
 30
0.713679
 11
-3.6069369999999998
 21
2.315026
 31
0.713679
  0
ARC
  5
989
  8
0
 10
-3.606727999999999
 20
2.3900259999999989
 30
0.713679
 40
0.075
 50
90.159862000000004
 51
269.84010299999989
  0
LINE
  5
98A
  8
0
 39
0.713679
 10
-3.6069369999999998
 20
2.4650249999999989
 30
0.713679
 11
-3.421065
 21
2.4650259999999991
 31
0.713679
  0
ARC
  5
98B
  8
0
 10
-3.420957
 20
2.5280259999999992
 30
0.713679
 40
0.063
 50
269.90159599999998
 51
327.60154199999999
  0
ARC
  5
98C
  8
0
 10
-3.249978
 20
2.419525999999999
 30
0.713679
 40
0.1395
 50
32.398488999999998
 51
147.60154199999991
  0
ARC
  5
98D
  8
0
 10
-3.078997999999999
 20
2.5280259999999992
 30
0.713679
 40
0.063
 50
212.39848900000001
 51
270.0
  0
LINE
  5
98E
  8
0
 39
0.713679
 10
-3.0619890000000001
 20
1.871025999999999
 30
0.713679
 11
-2.8914779999999989
 21
1.871025999999999
 31
0.713679
  0
ARC
  5
98F
  8
0
 10
-2.8914779999999989
 20
1.7650259999999991
 30
0.713679
 40
0.106
 50
270.0
 51
90.0
  0
LINE
  5
990
  8
0
 39
0.713679
 10
-2.8914779999999989
 20
1.659025999999999
 30
0.713679
 11
-3.608477999999999
 21
1.659025999999999
 31
0.713679
  0
ARC
  5
991
  8
0
 10
-3.608477999999999
 20
1.7650259999999991
 30
0.713679
 40
0.106
 50
90.0
 51
270.0
  0
LINE
  5
992
  8
0
 39
0.713679
 10
-3.608477999999999
 20
1.871025999999999
 30
0.713679
 11
-3.4379669999999991
 21
1.871025999999999
 31
0.713679
  0
ARC
  5
993
  8
0
 10
-3.4379669999999991
 20
1.933025999999999
 30
0.713679
 40
0.062
 50
270.0
 51
323.61922299999992
  0
ARC
  5
994
  8
0
 10
-3.249978
 20
1.794525999999999
 30
0.713679
 40
0.1715
 50
36.380777000000002
 51
143.61922300000001
  0
ARC
  5
995
  8
0
 10
-3.0619890000000001
 20
1.933025999999999
 30
0.713679
 40
0.062
 50
216.38077699999999
 51
270.0
  0
ENDSEC
  0
EOF
